Oops, an error
Loading. Please wait.
We have Chord Pro version of End Of Me.
It's the closest thing you can get to the original song and it has interactive parts. Check out the tab »
×

End Of Me chords

version 6
version 6

Whole song

  • I tabbed out the intro in drop D with the capo on ... Show more
  • My version does not require a capo and has differe... Show more

Interactive

40 views 3 this week
no commentswrite comment
1 2 3 4 5
3 more votes to show rating
add to favorites
×
Save as Personal and add changes to this tab that will be seen only by you. Learn more ›
×
You can save this tab as Personal to edit and correct it or add notes. All changes will be seen only by you. Learn more »
launch autoscroll
font size
0
reset
transpose
0
reset
simplify chords
display chords
guitar tuner
edit
Autoscroll
slow
fast
+/-
esc
set tempo
stop
Author
Difficulty
Strumming
There is no strumming pattern for this song yet. and get +5 IQ
[Intro]
    Bm            F#m          E           E
e|---------------------------------------------------------------------------|
B|---------------------------------------------------------------------------|
G|-7-----7-----2---2-2-----1---2-1-------1---2-1-----------------------------|
D|---9-7---------4-----4-----2-----2-------2-----2---------------------------|
A|---------------------------------------------------------------------------|  X2
E|-7-----------2-----------0-------------0-----------------------------------|

[Verse 1]
    Bm           F#m            E           E
e|---------------------------------------------------------------------------|
B|---------------------------------------------------------------------------|
G|-7-----7-----2---2-2-------1---2-1-------1---2-1---------------------------|
D|---9-7---------4-----4-------2-----2-------2-----2-------------------------|
A|---------------------------------------------------------------------------|  X4
E|-7-----------2-------------0-------------0---------------------------------|

[Chorus]
(Strum)
Bm    F#m                E       Esus
And I can't suppress the memories
       E              Bm
You're gone and I can tell
          F#m                 E       Esus
That I've lost more than I'll ever see
       E                 Bm
Don't say that it's not fair
            F#m                E       Esus  E
That you're not the person you wanna be
(Intro picking)
Oh you'll be the end of me

[Verse 2]
    Bm           F#m            E           E
e|---------------------------------------------------------------------------|
B|---------------------------------------------------------------------------|
G|-7-----7-----2---2-2-------1---2-1-------1---2-1---------------------------|
D|---9-7---------4-----4-------2-----2-------2-----2-------------------------|
A|---------------------------------------------------------------------------|  X4
E|-7-----------2-------------0-------------0---------------------------------|

[Chorus 2]
Bm     F#m               E       Esus
And I can't suppress the memories
       E              Bm
You're gone and I can tell
          F#m                 E       Esus
That I've lost more than I'll ever see
       E                Bm
Don't say that it's not fair
            F#m                E       Esus  E
That you're not the person you wanna be
Bm F#m              E        Esus  E
Oh oh you'll be the end of me

[Instrumental]
Bm  F#m  A  E

[Bridge]
Bm        F#m
I get it, no I get it
     A                         E
Gave more than I took back oh well (took back oh well)
Bm        F#m
I get it, no I get it
      A                              E
Can't help those who don't wanna be helped (you know me all too well)

[Chorus 2]
Bm     F#m               E       Esus
And I can't suppress the memories
       E              Bm
You're gone and I can tell
          F#m                 E       Esus
That I've lost more than I'll ever see
       E                Bm
Don't say that it's not fair
            F#m                E       Esus  E
That you're not the person you wanna be
Bm F#m              E        Esus  E
Oh oh you'll be the end of me

[Outro]
Bm  F#m  A  E     (X2)
Suggest correction
Creating personal tab
Creating personal tab
You can edit any tab online and save it as your Personal.

You can edit, replace or remove any tab part or add personal notes – all changes will be seen only by you.

Personal tabs can be accessed anytime from any device, even offline.
Learn more »
Give kudos to tab author, rate the tab!
1 2 3 4 5
comments
print report bad tab
guest
You may want to rate the tab now too:
select rating
Wanna post a correction for this tab? Suggest correction