Oops, an error
Loading. Please wait.

Exposed Tab

version 1
version 1

Whole song

  • It is more accurate than the other one. Positions ... Show more

Interactive

2,911 views 96 this week
no commentswrite comment
1 2 3 4 5
x 6
add to favorites
launch autoscroll
font size
0
reset
how to read this tab
guitar tuner
Autoscroll
slow
fast
+/-
esc
set tempo
stop
Help us to improve Ultimate-Guitar.com Take our survey!
×
Author
Difficulty
Tuning
intermediate
A# F A# D# G C
[Intro]

Guitar 1:
C |-----------------------------------------------|
G |-----------------------------------------------|
D#|-----------------------------------------------|
A#|-----------------------------------------------|
F |--5-----------5-------3-------5----------0-0-0-|
A#|----1-0-1-0-----1-0-1---1-0-1---1-0-1-0--1-1-1-|
pm                                          . . .


C |------------------------------------------------------|
G |------------------------------------------------------|
D#|------------------------------------------------------|
A#|------------------------------------------------------|
F |--5-----------5-------3-------5----------0--0--0-0--0-|
A#|----1-0-1-0-----1-0-1---1-0-1---1-0-1-0--1--1--1-1--1-|
pm                                          .  .  . .  .

C |----------------------------------------------------------|
G |----------------------------------------------------------|
D#|----------------------------------------------------------|
A#|----------------------------------------------------------|
F |--5-----------5-------3-------5---------------------------|
A#|----1-0-1-0-----1-0-1---1-0-1---1-0-1-0--4-4-4-4--1-1-1-1-|

C |------------------------------------------------------|
G |------------------------------------------------------|
D#|------------------------------------------------------|
A#|------------------------------------------------------|
F |--5-----------5-------3-------5----------0--0--0-0--0-|
A#|----1-0-1-0-----1-0-1---1-0-1---1-0-1-0--1--1--1-1--1-|
pm                                          .  .  . .  .

C |----------------------------------------------------------|
G |----------------------------------------------------------|
D#|----------------------------------------------------------|
A#|----------------------------------------------------------|
F |--5-----------5-------3-------5---------------------------|
A#|----1-0-1-0-----1-0-1---1-0-1---1-0-1-0--4-4-4-4--1-1-1-1-|


Guitar 2:
C |------------------------------------------------------|
G |------------------------------------------------------|
D#|------------------------------------------------------|
A#|------------------------------------------------------|
F |--5-----------5-------3-------5----------0--0--0-0--0-|
A#|----1-0-1-0-----1-0-1---1-0-1---1-0-1-0--1--1--1-1--1-|
pm                                          .  .  . .  .

C |----------------------------------------------------------|
G |----------------------------------------------------------|
D#|----------------------------------------------------------|
A#|----------------------------------------------------------|
F |--5-----------5-------3-------5---------------------------|
A#|----1-0-1-0-----1-0-1---1-0-1---1-0-1-0--4-4-4-4--1-1-1-1-|

C |--------------------------------------------------------------------|
G |--------------------------------------------------------------------|
D#|--7-7-7-7-7-7-7-7-7-7-7-7-7-7-7-7--8-8-8-8-8-8-8-8--5-5-5-5-5-5-5-5-|
A#|--x-x-x-x-x-x-x-x-x-x-x-x-x-x-x-x--x-x-x-x-x-x-x-x--x-x-x-x-x-x-x-x-|
F |--5-5-5-5-5-5-5-5-5-5-5-5-5-5-5-5--6-6-6-6-6-6-6-6--3-3-3-3-3-3-3-3-|
A#|--------------------------------------------------------------------|

C |------------------------------------------------------------------------------------|
G |------------------------------------------------------------------------------------|
D#|--7-7-7-7-7-7-7-7-7-7-7-7-7-7-7-7--14-14-14-14-14-14-14-14--15-15-15-15-15-15-15-15-|
A#|--x-x-x-x-x-x-x-x-x-x-x-x-x-x-x-x--x--x--x--x--x--x--x--x---x--x--x--x--x--x--x--x--|
F |--5-5-5-5-5-5-5-5-5-5-5-5-5-5-5-5--12-12-12-12-12-12-12-12--13-13-13-13-13-13-13-13-|
A#|------------------------------------------------------------------------------------|


[Verse 1]

Part 1:

Guitar 1:
C |---------------------------------------------------------------------|
G |---------------------------------------------------------------------|
D#|---------------------------------------------------------------------|
A#|--------------------4h5p4--------------------------------------------|
F |--5-----6---3---5-----------6---6/9--5-----6---3---5-------0-1-4---0-|
A#|----0-0---0---0---0-------0---0--------0-0---0---0---0-1-4-------4---|
pm     . .   .   .   .       .   .        . .   .   .   

C |---------------------------------------------------------------------|
G |---------------------------------------------------------------------|
D#|---------------------------------------------------------------------|
A#|--------------------4h5p4--------------------------------------------|
F |--5-----6---3---5-----------6---6/9--5-----6---3---5--3-3-3-3--2-----|
A#|----0-0---0---0---0-------0---0--------0-0---0---0----3-3-3-3--2-----|
pm     . .   .   .   .       .   .        . .   .   .   

Guitar 2 comes in second part of riff:
d|------------------------------------------------------------------|
A|------------------------------------------------------------------|
F|------------------------------------------------------------------|
C|--0~--------------------------------------------------------------|
G|--0~---------------------------------------------------3-3-3-3--2-|
C|--0~---------------------------------------------------3-3-3-3--2-|


Part 2:

Guitar 1:
C |---------------------------------------------------------------------|
G |---------------------------------------------------------------------|
D#|---------------------------------------------------------------------|
A#|--------------------4h5p4--------------------------------------------|
F |--5-----6---3---5-----------6---6/9--5-----6---3---5-------0-1-4---0-|
A#|----0-0---0---0---0-------0---0--------0-0---0---0---0-1-4-------4---|
pm     . .   .   .   .       .   .        . .   .   .   

C |---------------------------------------------------------------------|
G |---------------------------------------------------------------------|
D#|---------------------------------------------------------------------|
A#|--------------------4h5p4--------------------------------------------|
F |--5-----6---3---5-----------6---6/9--5-----6---3---5-------0-1-4---0-|
A#|----0-0---0---0---0-------0---0--------0-0---0---0---0-1-4-------4---|
pm     . .   .   .   .       .   .        . .   .   .   

C |---------------------------------------------------------------------|
G |---------------------------------------------------------------------|
D#|---------------------------------------------------------------------|
A#|--------------------4h5p4--------------------------------------------|
F |--5-----6---3---5-----------6---6/9--5-----6---3---5-------0-1-4---0-|
A#|----0-0---0---0---0-------0---0--------0-0---0---0---0-1-4-------4---|
pm     . .   .   .   .       .   .        . .   .   .   

C |---------------------------------------------------------------------|
G |---------------------------------------------------------------------|
D#|---------------------------------------------------------------------|
A#|--------------------4h5p4--------------------------------------------|
F |--5-----6---3---5-----------6---6/9--5-----6---3---5-------0-1-4---0-|
A#|----0-0---0---0---0-------0---0--------0-0---0---0---0-1-4-------4---|
pm     . .   .   .   .       .   .        . .   .   .   

Guitar 2:
C |---------------------------------------------------------------------|
G |---------------------------------------------------------------------|
D#|---------------------------------------------------------------------|
A#|--------------------4h5p4--------------------------------------------|
F |--5-----6---3---5-----------6---6/9--5-----6---3---5-------0-1-4---0-|
A#|----0-0---0---0---0-------0---0--------0-0---0---0---0-1-4-------4---|
pm     . .   .   .   .       .   .        . .   .   .   

C |---------------------------------------------------------------------|
G |---------------------------------------------------------------------|
D#|---------------------------------------------------------------------|
A#|--------------------4h5p4--------------------------------------------|
F |--5-----6---3---5-----------6---6/9--5-----6---3---5-------0-1-4---0-|
A#|----0-0---0---0---0-------0---0--------0-0---0---0---0-1-4-------4---|
pm     . .   .   .   .       .   .        . .   .   .   

C |---------------------------------------------------------------------|
G |---------------------------------------------------------------------|
D#|---------------------------------------------------------------------|
A#|---------------------------------------------------------------------|
F |--0-0-0--0---0-0-0--0--0-----0-0-0--0---0-0-0--0--0--------0-1-4---0-|
A#|--0-0-0--0---0-0-0--0--0-----0-0-0--0---0-0-0--0--0--0-1-4-------4---|
pm   . . .  .   . . .  .  .     . . .  .   . . .  .  . 

C |---------------------------------------------------------------------|
G |---------------------------------------------------------------------|
D#|---------------------------------------------------------------------|
A#|---------------------------------------------------------------------|
F |--0-0-0--0---0-0-0--0--0-----0-0-0--0---0-0-0--0--0--------0-1-4---0-|
A#|--0-0-0--0---0-0-0--0--0-----0-0-0--0---0-0-0--0--0--0-1-4-------4---|
pm   . . .  .   . . .  .  .     . . .  .   . . .  .  . 



[Pre-Chorus 1]

Guitar 1:
C |---------------------------------------------------------------------------------------------------|
G |---------------------------------------------------------------------------------------------------|
D#|---------14-------14-------14-------14----12----14-------14-------14-------17-------17----15----14-|
A#|---12-12----12-12----12-12----12-12----12----12----12-12----12-12----12-12----12-12----12----12----|
F |---------------------------------------------------------------------------------------------------|
A#|---------------------------------------------------------------------------------------------------|
pm    .  .     .  .     .  .     .  .     .     .     .  .     .  .     .  .     .  .     .     .


[Chorus 1]

Guitar 1:
C |---------------------------------------------------------------------------------------------------|
G |---------------------------------------------------------------------------------------------------|
D#|---------14-------14-------14-------14----12----14-------14-------14-------17-------17----15----14-|
A#|---12-12----12-12----12-12----12-12----12----12----12-12----12-12----12-12----12-12----12----12----|
F |---------------------------------------------------------------------------------------------------|
A#|---------------------------------------------------------------------------------------------------|
pm    .  .     .  .     .  .     .  .     .     .     .  .     .  .     .  .     .  .     .     .

C |---------------------------------------------------------------------------------------------------|
G |---------------------------------------------------------------------------------------------------|
D#|---------14-------14-------14-------14----12----14-------14-------14-------17-------17----15----14-|
A#|---12-12----12-12----12-12----12-12----12----12----12-12----12-12----12-12----12-12----12----12----|
F |---------------------------------------------------------------------------------------------------|
A#|---------------------------------------------------------------------------------------------------|
pm    .  .     .  .     .  .     .  .     .     .     .  .     .  .     .  .     .  .     .     .

C |---------------------------------------------------------------------------------------------------|
G |---------------------------------------------------------------------------------------------------|
D#|---------14-------14-------14-------14----12----14-------14-------14-------17-------17----15----14-|
A#|---12-12----12-12----12-12----12-12----12----12----12-12----12-12----12-12----12-12----12----12----|
F |---------------------------------------------------------------------------------------------------|
A#|---------------------------------------------------------------------------------------------------|
pm    .  .     .  .     .  .     .  .     .     .     .  .     .  .     .  .     .  .     .     .

C |---------------------------------------------------------------------------------------------------|
G |---------------------------------------------------------------------------------------------------|
D#|---------14-------14-------14-------14----12----14-------14-------14-------17-------17----15----14-|
A#|---12-12----12-12----12-12----12-12----12----12----12-12----12-12----12-12----12-12----12----12----|
F |---------------------------------------------------------------------------------------------------|
A#|---------------------------------------------------------------------------------------------------|
pm    .  .     .  .     .  .     .  .     .     .     .  .     .  .     .  .     .  .     .     .

Guitar 2:
C |-------------------------------------------------------------------|
G |-------------------------------------------------------------------|
D#|-------------------------------------------------------------------|
A#|--0-0-0-0-0-0-0-0-0-0-0-0-0-0-0-0--3-3-3-3-3-3-3-3-3-3-3-3-3-3-3-3-|
F |--0-0-0-0-0-0-0-0-0-0-0-0-0-0-0-0--3-3-3-3-3-3-3-3-3-3-3-3-3-3-3-3-|
A#|--0-0-0-0-0-0-0-0-0-0-0-0-0-0-0-0--3-3-3-3-3-3-3-3-3-3-3-3-3-3-3-3-|

C |-------------------------------------------------------------------|
G |-------------------------------------------------------------------|
D#|-------------------------------------------------------------------|
A#|--8-8-8-8-8-8-8-8-8-8-8-8-8-8-8-8--5-5-5-5-5-5-5-5-5-5-5-5-5-5-5-5-|
F |--8-8-8-8-8-8-8-8-8-8-8-8-8-8-8-8--5-5-5-5-5-5-5-5-5-5-5-5-5-5-5-5-|
A#|--8-8-8-8-8-8-8-8-8-8-8-8-8-8-8-8--5-5-5-5-5-5-5-5-5-5-5-5-5-5-5-5-|

C |-------------------------------------------------------------------|
G |-------------------------------------------------------------------|
D#|-------------------------------------------------------------------|
A#|--0-0-0-0-0-0-0-0-0-0-0-0-0-0-0-0--3-3-3-3-3-3-3-3-3-3-3-3-3-3-3-3-|
F |--0-0-0-0-0-0-0-0-0-0-0-0-0-0-0-0--3-3-3-3-3-3-3-3-3-3-3-3-3-3-3-3-|
A#|--0-0-0-0-0-0-0-0-0-0-0-0-0-0-0-0--3-3-3-3-3-3-3-3-3-3-3-3-3-3-3-3-|

C |-----------------------------------------------------------------------------------|
G |-----------------------------------------------------------------------------------|
D#|-----------------------------------------------------------------------------------|
A#|--8-8-8-8-8-8-8-8-8-8-8-8-8-8-8-8--10-10-10-10-10-10-10-10-10-10-10-10-10-10-10-10-|
F |--8-8-8-8-8-8-8-8-8-8-8-8-8-8-8-8--10-10-10-10-10-10-10-10-10-10-10-10-10-10-10-10-|
A#|--8-8-8-8-8-8-8-8-8-8-8-8-8-8-8-8--10-10-10-10-10-10-10-10-10-10-10-10-10-10-10-10-|

Guitar 3:
C |---------------------------------------------------------------------------------------------------|
G |---------------------------------------------------------------------------------------------------|
D#|--11-11-11-11-11-11-11-11-11-11-11-11-11-11-11-11--12-12-12-12-12-12-12-12-12-12-12-12-12-12-12-12-|
A#|--x--x--x--x--x--x--x--x--x--x--x--x--x--x--x--x---x--x--x--x--x--x--x--x--x--x--x--x--x--x--x--x--|
F |--9--9--9--9--9--9--9--9--9--9--9--9--9--9--9--9---10-10-10-10-10-10-10-10-10-10-10-10-10-10-10-10-|
A#|---------------------------------------------------------------------------------------------------|

C |---------------------------------------------------------------------------------------------------|
G |---------------------------------------------------------------------------------------------------|
D#|--14-14-14-14-14-14-14-14-14-14-14-14-14-14-14-14--12-12-12-12-12-12-12-12-12-12-12-12-12-12-12-12-|
A#|--x--x--x--x--x--x--x--x--x--x--x--x--x--x--x--x---x--x--x--x--x--x--x--x--x--x--x--x--x--x--x--x--|
F |--12-12-12-12-12-12-12-12-12-12-12-12-12-12-12-12--10-10-10-10-10-10-10-10-10-10-10-10-10-10-10-10-|
A#|---------------------------------------------------------------------------------------------------|

C |---------------------------------------------------------------------------------------------------|
G |---------------------------------------------------------------------------------------------------|
D#|--11-11-11-11-11-11-11-11-11-11-11-11-11-11-11-11--12-12-12-12-12-12-12-12-12-12-12-12-12-12-12-12-|
A#|--x--x--x--x--x--x--x--x--x--x--x--x--x--x--x--x---x--x--x--x--x--x--x--x--x--x--x--x--x--x--x--x--|
F |--9--9--9--9--9--9--9--9--9--9--9--9--9--9--9--9---10-10-10-10-10-10-10-10-10-10-10-10-10-10-10-10-|
A#|---------------------------------------------------------------------------------------------------|

C |---------------------------------------------------------------------------------------------------|
G |---------------------------------------------------------------------------------------------------|
D#|--14-14-14-14-14-14-14-14-14-14-14-14-14-14-14-14--12-12-12-12-12-12-12-12-12-12-12-12-12-12-12-12-|
A#|--x--x--x--x--x--x--x--x--x--x--x--x--x--x--x--x---x--x--x--x--x--x--x--x--x--x--x--x--x--x--x--x--|
F |--12-12-12-12-12-12-12-12-12-12-12-12-12-12-12-12--10-10-10-10-10-10-10-10-10-10-10-10-10-10-10-10-|
A#|---------------------------------------------------------------------------------------------------|


[Verse 2]

Part 1:

Guitar 1:

C |------------------------------------------------------|
G |------------------------------------------------------|
D#|------------------------------------------------------|
A#|------------------------------------------------------|
F |--5-----------5-------3-------5----------0--0--0-0--0-|
A#|----1-0-1-0-----1-0-1---1-0-1---1-0-1-0--1--1--1-1--1-|
pm                                          .  .  . .  .

C |----------------------------------------------------------|
G |----------------------------------------------------------|
D#|----------------------------------------------------------|
A#|----------------------------------------------------------|
F |--5-----------5-------3-------5---------------------------|
A#|----1-0-1-0-----1-0-1---1-0-1---1-0-1-0--4-4-4-4--1-1-1-1-|


C |------------------------------------------------------|
G |------------------------------------------------------|
D#|------------------------------------------------------|
A#|------------------------------------------------------|
F |--5-----------5-------3-------5----------0--0--0-0--0-|
A#|----1-0-1-0-----1-0-1---1-0-1---1-0-1-0--1--1--1-1--1-|
pm                                          .  .  . .  .

C |----------------------------------------------------------|
G |----------------------------------------------------------|
D#|----------------------------------------------------------|
A#|----------------------------------------------------------|
F |--5-----------5-------3-------5---------------------------|
A#|----1-0-1-0-----1-0-1---1-0-1---1-0-1-0--4-4-4-4--1-1-1-1-|

Guitar 2:

C |------------------------------------------------------|
G |------------------------------------------------------|
D#|------------------------------------------------------|
A#|------------------------------------------------------|
F |--5-----------5-------3-------5----------0--0--0-0--0-|
A#|----1-0-1-0-----1-0-1---1-0-1---1-0-1-0--1--1--1-1--1-|
pm                                          .  .  . .  .

C |----------------------------------------------------------|
G |----------------------------------------------------------|
D#|----------------------------------------------------------|
A#|----------------------------------------------------------|
F |--5-----------5-------3-------5---------------------------|
A#|----1-0-1-0-----1-0-1---1-0-1---1-0-1-0--4-4-4-4--1-1-1-1-|

C |--------------------------------------------------------------------|
G |--------------------------------------------------------------------|
D#|--7-7-7-7-7-7-7-7-7-7-7-7-7-7-7-7--8-8-8-8-8-8-8-8--5-5-5-5-5-5-5-5-|
A#|--x-x-x-x-x-x-x-x-x-x-x-x-x-x-x-x--x-x-x-x-x-x-x-x--x-x-x-x-x-x-x-x-|
F |--5-5-5-5-5-5-5-5-5-5-5-5-5-5-5-5--6-6-6-6-6-6-6-6--3-3-3-3-3-3-3-3-|
A#|--------------------------------------------------------------------|

C |------------------------------------------------------------------------------------|
G |------------------------------------------------------------------------------------|
D#|--7-7-7-7-7-7-7-7-7-7-7-7-7-7-7-7--14-14-14-14-14-14-14-14--15-15-15-15-15-15-15-15-|
A#|--x-x-x-x-x-x-x-x-x-x-x-x-x-x-x-x--x--x--x--x--x--x--x--x---x--x--x--x--x--x--x--x--|
F |--5-5-5-5-5-5-5-5-5-5-5-5-5-5-5-5--12-12-12-12-12-12-12-12--13-13-13-13-13-13-13-13-|
A#|------------------------------------------------------------------------------------|


Part 2:

Guitar 1:
C |-------------------------------------------------------------------------------------------------------|
G |-------------------------------------------------------------------------------------------------------|
D#|-------------------------------------------------------------------------------------------------------|
A#|--------------------------------------------------3*---------------------------------------------------|
F |-0----0--0--0-0--0--------------0--0--0--0-0--------------0--0--0-0--0-----------------5-------3-------|
A#|-0----0--0--0-0--0--1-1-0-1-0---1--1--1--1-0--------------0--0--0-0--0--1-1-0-1-0--------1-0-1---1-0-1-|
pm  .    .  .  . .  .  . .         .  .  .  . .              .  .  . .  .  . .

C |--------------------------------------------------------------------------------------------------------|
G |--------------------------------------------------------------------------------------------------------|
D#|--------------------------------------------------------------------------------------------------------|
A#|--------------------------------------------------------------------------------------------------------|
F |-0----0--0--0-0--0--------------0--0--0--0-0---------------0--0--0-0--0-----------------5-------3-------|
A#|-0----0--0--0-0--0--1-1-0-1-0---1--1--1--1-0--3*-3*-3*-3*--0--0--0-0--0--1-1-0-1-0--------1-0-1---1-0-1-|
pm  .    .  .  . .  .  . .         .  .  .  . .               .  .  . .  .  . .

Guitar 2:
C |-------------------------------------------------------------------------------------------------------|
G |-------------------------------------------------------------------------------------------------------|
D#|-------------------------------------------------------------------------------------------------------|
A#|-------------------------------------------------------------------------------------------------------|
F |-0----0--0--0-0--0--------------0--0--0--0-0--------------0--0--0-0--0-----------------5-------3-------|
A#|-0----0--0--0-0--0--------------1--1--1--1-0--------------0--0--0-0--0-------------------1-0-1---1-0-1-|
pm  .    .  .  . .  .              .  .  .  . .              .  .  . .  .

C |-------------------------------------------------------------------------------------------------------|
G |-------------------------------------------------------------------------------------------------------|
D#|-------------------------------------------------------------------------------------------------------|
A#|-------------------------------------------------------------------------------------------------------|
F |-0----0--0--0-0--0--------------0--0--0--0-0--------------0--0--0-0--0-----------------5-------3-------|
A#|-0----0--0--0-0--0--------------1--1--1--1-0--------------0--0--0-0--0-------------------1-0-1---1-0-1-|
pm  .    .  .  . .  .              .  .  .  . .              .  .  . .  .


[Pre Chorus 2]


Guitar 1:
C |---------------------------------------------------------------------------------------------------|
G |---------------------------------------------------------------------------------------------------|
D#|---------14-------14-------14-------14----12----14-------14-------14-------17-------17----15----14-|
A#|---12-12----12-12----12-12----12-12----12----12----12-12----12-12----12-12----12-12----12----12----|
F |---------------------------------------------------------------------------------------------------|
A#|---------------------------------------------------------------------------------------------------|
pm    .  .     .  .     .  .     .  .     .     .     .  .     .  .     .  .     .  .     .     .


[Chorus 2] 


Played through twice this time


Guitar 1:
C |---------------------------------------------------------------------------------------------------|
G |---------------------------------------------------------------------------------------------------|
D#|---------14-------14-------14-------14----12----14-------14-------14-------17-------17----15----14-|
A#|---12-12----12-12----12-12----12-12----12----12----12-12----12-12----12-12----12-12----12----12----|
F |---------------------------------------------------------------------------------------------------|
A#|---------------------------------------------------------------------------------------------------|
pm    .  .     .  .     .  .     .  .     .     .     .  .     .  .     .  .     .  .     .     .

C |---------------------------------------------------------------------------------------------------|
G |---------------------------------------------------------------------------------------------------|
D#|---------14-------14-------14-------14----12----14-------14-------14-------17-------17----15----14-|
A#|---12-12----12-12----12-12----12-12----12----12----12-12----12-12----12-12----12-12----12----12----|
F |---------------------------------------------------------------------------------------------------|
A#|---------------------------------------------------------------------------------------------------|
pm    .  .     .  .     .  .     .  .     .     .     .  .     .  .     .  .     .  .     .     .

C |---------------------------------------------------------------------------------------------------|
G |---------------------------------------------------------------------------------------------------|
D#|---------14-------14-------14-------14----12----14-------14-------14-------17-------17----15----14-|
A#|---12-12----12-12----12-12----12-12----12----12----12-12----12-12----12-12----12-12----12----12----|
F |---------------------------------------------------------------------------------------------------|
A#|---------------------------------------------------------------------------------------------------|
pm    .  .     .  .     .  .     .  .     .     .     .  .     .  .     .  .     .  .     .     .

C |---------------------------------------------------------------------------------------------------|
G |---------------------------------------------------------------------------------------------------|
D#|---------14-------14-------14-------14----12----14-------14-------14-------17-------17----15----14-|
A#|---12-12----12-12----12-12----12-12----12----12----12-12----12-12----12-12----12-12----12----12----|
F |---------------------------------------------------------------------------------------------------|
A#|---------------------------------------------------------------------------------------------------|
pm    .  .     .  .     .  .     .  .     .     .     .  .     .  .     .  .     .  .     .     .

Guitar 2:
C |-------------------------------------------------------------------|
G |-------------------------------------------------------------------|
D#|-------------------------------------------------------------------|
A#|--0-0-0-0-0-0-0-0-0-0-0-0-0-0-0-0--3-3-3-3-3-3-3-3-3-3-3-3-3-3-3-3-|
F |--0-0-0-0-0-0-0-0-0-0-0-0-0-0-0-0--3-3-3-3-3-3-3-3-3-3-3-3-3-3-3-3-|
A#|--0-0-0-0-0-0-0-0-0-0-0-0-0-0-0-0--3-3-3-3-3-3-3-3-3-3-3-3-3-3-3-3-|

C |-------------------------------------------------------------------|
G |-------------------------------------------------------------------|
D#|-------------------------------------------------------------------|
A#|--8-8-8-8-8-8-8-8-8-8-8-8-8-8-8-8--5-5-5-5-5-5-5-5-5-5-5-5-5-5-5-5-|
F |--8-8-8-8-8-8-8-8-8-8-8-8-8-8-8-8--5-5-5-5-5-5-5-5-5-5-5-5-5-5-5-5-|
A#|--8-8-8-8-8-8-8-8-8-8-8-8-8-8-8-8--5-5-5-5-5-5-5-5-5-5-5-5-5-5-5-5-|

C |-------------------------------------------------------------------|
G |-------------------------------------------------------------------|
D#|-------------------------------------------------------------------|
A#|--0-0-0-0-0-0-0-0-0-0-0-0-0-0-0-0--3-3-3-3-3-3-3-3-3-3-3-3-3-3-3-3-|
F |--0-0-0-0-0-0-0-0-0-0-0-0-0-0-0-0--3-3-3-3-3-3-3-3-3-3-3-3-3-3-3-3-|
A#|--0-0-0-0-0-0-0-0-0-0-0-0-0-0-0-0--3-3-3-3-3-3-3-3-3-3-3-3-3-3-3-3-|

C |-----------------------------------------------------------------------------------|
G |-----------------------------------------------------------------------------------|
D#|-----------------------------------------------------------------------------------|
A#|--8-8-8-8-8-8-8-8-8-8-8-8-8-8-8-8--10-10-10-10-10-10-10-10-10-10-10-10-10-10-10-10-|
F |--8-8-8-8-8-8-8-8-8-8-8-8-8-8-8-8--10-10-10-10-10-10-10-10-10-10-10-10-10-10-10-10-|
A#|--8-8-8-8-8-8-8-8-8-8-8-8-8-8-8-8--10-10-10-10-10-10-10-10-10-10-10-10-10-10-10-10-|

Guitar 3:
C |---------------------------------------------------------------------------------------------------|
G |---------------------------------------------------------------------------------------------------|
D#|--11-11-11-11-11-11-11-11-11-11-11-11-11-11-11-11--12-12-12-12-12-12-12-12-12-12-12-12-12-12-12-12-|
A#|--x--x--x--x--x--x--x--x--x--x--x--x--x--x--x--x---x--x--x--x--x--x--x--x--x--x--x--x--x--x--x--x--|
F |--9--9--9--9--9--9--9--9--9--9--9--9--9--9--9--9---10-10-10-10-10-10-10-10-10-10-10-10-10-10-10-10-|
A#|---------------------------------------------------------------------------------------------------|

C |---------------------------------------------------------------------------------------------------|
G |---------------------------------------------------------------------------------------------------|
D#|--14-14-14-14-14-14-14-14-14-14-14-14-14-14-14-14--12-12-12-12-12-12-12-12-12-12-12-12-12-12-12-12-|
A#|--x--x--x--x--x--x--x--x--x--x--x--x--x--x--x--x---x--x--x--x--x--x--x--x--x--x--x--x--x--x--x--x--|
F |--12-12-12-12-12-12-12-12-12-12-12-12-12-12-12-12--10-10-10-10-10-10-10-10-10-10-10-10-10-10-10-10-|
A#|---------------------------------------------------------------------------------------------------|

C |---------------------------------------------------------------------------------------------------|
G |---------------------------------------------------------------------------------------------------|
D#|--11-11-11-11-11-11-11-11-11-11-11-11-11-11-11-11--12-12-12-12-12-12-12-12-12-12-12-12-12-12-12-12-|
A#|--x--x--x--x--x--x--x--x--x--x--x--x--x--x--x--x---x--x--x--x--x--x--x--x--x--x--x--x--x--x--x--x--|
F |--9--9--9--9--9--9--9--9--9--9--9--9--9--9--9--9---10-10-10-10-10-10-10-10-10-10-10-10-10-10-10-10-|
A#|---------------------------------------------------------------------------------------------------|

C |---------------------------------------------------------------------------------------------------|
G |---------------------------------------------------------------------------------------------------|
D#|--14-14-14-14-14-14-14-14-14-14-14-14-14-14-14-14--12-12-12-12-12-12-12-12-12-12-12-12-12-12-12-12-|
A#|--x--x--x--x--x--x--x--x--x--x--x--x--x--x--x--x---x--x--x--x--x--x--x--x--x--x--x--x--x--x--x--x--|
F |--12-12-12-12-12-12-12-12-12-12-12-12-12-12-12-12--10-10-10-10-10-10-10-10-10-10-10-10-10-10-10-10-|
A#|---------------------------------------------------------------------------------------------------|


[Bridge]


Guitar 1:
C |----------------------------------------------------------------------------------------------------------|
G |---------8~------------------8~-----------------8~---------------8~----------------8~------------------8~-|
D#|------8~-----------------8~-----------------8~---------------8~-----------------8~-----------------8~-----|
A#|--12~--------12~----12~--------12~------12~--------12~---12~--------12~-----12~------12~------12~---------|
F |----------------------------------------------------------------------------------------------------------|
A#|----------------------------------------------------------------------------------------------------------|

Guitar 2:
C |------------------------------------------------------------------------------|
G |------------------------------------------------------------------------------|
D#|------------------------------------------------------------------------------|
A#|------------------------------------------------------------------------------|
F |--0-0-0-0--0---0-0-0-0--0---0-0-0-0--0----0-0-0-0--0---0-0-0-0--0--0-0-0-0--0-|
A#|--0-0-0-0--0---0-0-0-0--0---0-0-0-0--0----0-0-0-0--0---0-0-0-0--0--0-0-0-0--0-|
pm   . . . .  .   . . . .  .   . . . .  .    . . . .  .   . . . .  .  . . . .  . 

C |---------------------------------------------------------------------------------------------------------|
G |---------------------------------------------------------------------------------------------------------|
D#|---------------------------------------------------------------------------------------------------------|
A#|---------------------------------------------------------------------------------------------------------|
F |-0-0-0-0--0--0-0-0-0--0--0-0-0-0--0-0-0-0--0-0-0-0--0-0-0-0--0-0-0-0--0-0-0-0--0--0-0-0-0--0--0-0-0-0--0-|
A#|-0-0-0-0--0--0-0-0-0--0--0-0-0-0--0-0-0-0--0-0-0-0--0-0-0-0--0-0-0-0--0-0-0-0--0--0-0-0-0--0--0-0-0-0--0-|
pm  . . . .  .  . . . .  .  . . . .  . . . .  . . . .  . . . .  . . . .  . . . .  .  . . . .  .  . . . .  . 


[Breakdown]


Guitar 1:
C |--------------------------------------------------------------------|
G |--------------------------------------------------------------------|
D#|--------------------------------------------------------------------|
A#|--------------------------------------------------------------------|
F |--0-0-0-0--0----0-0-0-0--0---0-0-0-0---0-0-0-0-------------0-0-0-0--|
A#|--0-0-0-0--0----0-0-0-0--0---0-0-0-0---0-0-0-0-------------0-0-0-0--|
pm   . . . .  .    . . . .  .   . . . .   . . . .             . . . .   

C |-------------------------------------------------------------------------|
G |-------------------------------------------------------------------------|
D#|-------------------------------------------------------------------------|
A#|-------------------------------------------------------------------------|
F |--0-0-0-0--0----0-0-0-0--0---0-0-0-0---0-0-0-0----------------0--0--0--0-|
A#|--0-0-0-0--0----0-0-0-0--0---0-0-0-0---0-0-0-0----------------0--0--0--0-|
pm   . . . .  .    . . . .  .   . . . .   . . . .                .  .  .  .

C |--------------------------------------------------------------------------------------------------------|
G |--------------------------------------------------------------------------------------------------------|
D#|--------------------------------------------------------------------------------------------------------|
A#|--------------------------------------------------------------------------------------------------------|
F |--0-0-0-0--0---0-0-0-0--0---0-0-0-0---0-0-0-0---------0-0-0-0-------0-0-0-0--0--0-0-0-0--0---0-0-0-0--0-|
A#|--0-0-0-0--0---0-0-0-0--0---0-0-0-0---0-0-0-0---------0-0-0-0-------0-0-0-0--0--0-0-0-0--0---0-0-0-0--0-|
pm   . . . .  .   . . . .  .   . . . .   . . . .         . . . .       . . . .  .  . . . .  .   . . . .  .

Guitar 2:
C |---------------------------------------------------------------------------------|
G |---------------------------------------------------------------------------------|
D#|---------------------------------------------------------------------------------|
A#|---------------------------------------------------------------------------------|
F |--0-0-0-0--0----0-0-0-0--0---0-0-0-0-------------0-0-0-0-------------0--0--0--0--|
A#|--0-0-0-0--0----0-0-0-0--0---0-0-0-0-------------0-0-0-0-------------0--0--0--0--|
pm   . . . .  .    . . . .  .   . . . .             . . . .             .  .  .  .   

C |-------------------------------------------------------------------------|
G |-------------------------------------------------------------------------|
D#|-------------------------------------------------------------------------|
A#|-------------------------------------------------------------------------|
F |--0-0-0-0--0----0-0-0-0--0---0-0-0-0--------------------------0--0--0--0-|
A#|--0-0-0-0--0----0-0-0-0--0---0-0-0-0--------------------------0--0--0--0-|
pm   . . . .  .    . . . .  .   . . . .                          .  .  .  .

C |--------------------------------------------------------------------------------------------------------|
G |--------------------------------------------------------------------------------------------------------|
D#|--------------------------------------------------------------------------------------------------------|
A#|--------------------------------------------------------------------------------------------------------|
F |--0-0-0-0--0---0-0-0-0--0---0-0-0-0-----------0-0-0-0------0-0-0-0--0-0-0-0--0--0-0-0-0--0---0-0-0-0--0-|
A#|--0-0-0-0--0---0-0-0-0--0---0-0-0-0-----------0-0-0-0------0-0-0-0--0-0-0-0--0--0-0-0-0--0---0-0-0-0--0-|
pm   . . . .  .   . . . .  .   . . . .           . . . .      . . . .  . . . .  .  . . . .  .   . . . .  .


[Outro]


Guitar 1:
C |-----------------------------------------------------------------------------------------|
G |---------8~--------------------8~--------------------8~--------------------8~------------|
D#|------8~-------------------8~---------------------8~-------------------8~----------------|
A#|--12~--------12~------12~----------12~--------12~--------12~------12~----------12~-------|
F |-----------------------------------------------------------------------------------------|
A#|-----------------------------------------------------------------------------------------|

Guitar 2:
C |-------------------------------------------------------------------------|
G |-------------------------------------------------------------------------|
D#|-------------------------------------------------------------------------|
A#|-------------------------------------------------------------------------|
F |--0-0-0-0--0---0-0-0-0--0---0-0-0-0--0-0-0-0--0-0-0-0--0-0-0-0--0-0-0-0--| 
A#|--0-0-0-0--0---0-0-0-0--0---0-0-0-0--0-0-0-0--0-0-0-0--0-0-0-0--0-0-0-0--|
pm   . . . .  .   . . . .  .   . . . .  . . . .  . . . .  . . . .  . . . .  

C |------------------------------------------------------------------|
G |------------------------------------------------------------------|
D#|------------------------------------------------------------------|
A#|------------------------------------------------------------------|
F |--0-0-0-0--0---0-0-0-0--0---0-0-0-0--0-0-0-0--0-0-0-0--0-0-0-0-2*-| Pinch Harmonic on 2
A#|--0-0-0-0--0---0-0-0-0--0---0-0-0-0--0-0-0-0--0-0-0-0--0-0-0-0----|
pm   . . . .  .   . . . .  .   . . . .  . . . .  . . . .  . . . . 

C |-------------------------------------------------------------------------|
G |-------------------------------------------------------------------------|
D#|-------------------------------------------------------------------------|
A#|-------------------------------------------------------------------------|
F |--0-0-0-0--0---0-0-0-0--0---0-0-0-0--0-0-0-0--0-0-0-0--0-0-0-0--0-0-0-0--| 
A#|--0-0-0-0--0---0-0-0-0--0---0-0-0-0--0-0-0-0--0-0-0-0--0-0-0-0--0-0-0-0--|
pm   . . . .  .   . . . .  .   . . . .  . . . .  . . . .  . . . .  . . . .

C |-------------------------------------------------------------------------|
G |-------------------------------------------------------------------------|
D#|-------------------------------------------------------------------------|
A#|-------------------------------------------------------------------------|
F |--0-0-0-0--0---0-0-0-0--0---0-0-0-0--0-0-0-0--0-0-0-0--0-0-0-0--0-0-0-0--| 
A#|--0-0-0-0--0---0-0-0-0--0---0-0-0-0--0-0-0-0--0-0-0-0--0-0-0-0--0-0-0-0--|
pm   . . . .  .   . . . .  .   . . . .  . . . .  . . . .  . . . .  . . . .

************************************

| x    Dead note
| (n)  Ghost note
| h    Hammer-on
| /    Slide up
| ~    Let Ring
| pm . Palm mute
| ^    Bend
| *    Harmonic

************************************
Suggest correction
comments
print report bad tab
guest
You may want to rate the tab now too:
select rating
Wanna post a correction for this tab? Suggest correction