Oops, an error
Loading. Please wait.

Exposed Tab

version 2
version 2

Whole song

  • It is more accurate than the other one. Positions ... Show more

Interactive

565 views 6 this week
no commentswrite comment
1 2 3 4 5
2 more votes to show rating
add to favorites
launch autoscroll
font size
0
reset
how to read this tab
guitar tuner
Autoscroll
slow
fast
+/-
esc
set tempo
stop
Help us to improve Ultimate-Guitar.com Take our survey!
×
Author
Difficulty
Tuning
intermediate
A# F A# D# G C
About this tab version
It is more accurate than the other one. Positions are easier and make going into other riffs easier. Was this info helpful? Yes No
This is one of A Day To Remember's new songs from the album Bad Vibrations. Heavy as
song. One of the heaviest
breakdowns I've ever heard.
Tuning: Drop A#

Tempos-211bpm, 220, 114)

(Intro)
c |---------------------------------------------------------------------------------------------------------|
g |---------------------------------------------------------------------------------------------------------|
d#|---------------------------------------------------------------------------------------------------------|
A#|---------------------------------------------------------------------------------------------------------|
F |-5-----------5-------3-------5-----------0-0-00-0-5-----------5-------3-------5--------------------------|
A#|---1-0-1-0-----1-0-1---1-0-1---1-0-1-0---1-1-11-1---1-0-1-0-----1-0-1---1-0-1---1-0-1-0--4-4-4-4-1-1-1-1-|
                                            . . .. .
c |-----------------------------------|
g |-----------------------------------|
d#|-7-----8----5----7-----14----15----|
A#|---x16---x8---x8---x16----x8----x8-|
F |-5-----6----3----5-----12----13----|
A#|-----------------------------------|

(Verse 1)
c |------------------------------------------------------------|
g |------------------------------------------------------------|
d#|------------------------------------------------------------|
A#|-----------------4h5p4--------------------------------------|
F |-5-----6---3---5-------6---6/8--5-----6---3---5-------0-1-3-|
A#|---0-0---0---0-----------0--------0-0---0---0---0-1-3-------|
      . .   .   .           .        . .   .   .

c |-----------------|
g |-----------------|
d#|-----------------|
A#|-----------------|
F |-000-0-000-0-000-|
A#|-000-0-000-0-000-|
    ... . ... . ...

(Chorus 1)
110bpm (16th notes)---(114bpm (16th notes) for chorus)

c |----------------------------------------------------8-----8-------------|
g |-10-----10-----10-----10---8---10-----10-----10---------------11-----10-|
d#|----7-7----7-7----7-7----7---7----7-7----7-7----7-7---7-7---7----7-7----|
A#|------------------------------------------------------------------------|
F |------------------------------------------------------------------------|
A#|------------------------------------------------------------------------|
       . .    . .    . .    .   .    . .    . .    . .   . .   .    . .

c |---------------------------------------------------------------|
g |---------------------------------------------------------------|
d#|---------------------------------------------------------------|
A#|-0-0-0-0-0-0-0-0-3-3-3-3-3-3-3-8-8-8-8-8-8-8-8-5-5-5-5-5-5-5-5-|
F |-0-0-0-0-0-0-0-0-3-3-3-3-3-3-3-8-8-8-8-8-8-8-8-5-5-5-5-5-5-5-5-|
A#|-0-0-0-0-0-0-0-0-3-3-3-3-3-3-3-8-8-8-8-8-8-8-8-5-5-5-5-5-5-5-5-|


(Verse 2)
c |---------------------------------------------------------------------------------------------------------|
g |---------------------------------------------------------------------------------------------------------|
d#|---------------------------------------------------------------------------------------------------------|
A#|---------------------------------------------------------------------------------------------------------|
F |-5-----------5-------3-------5-----------0-0-00-0-5-----------5-------3-------5--------------------------|
A#|---1-0-1-0-----1-0-1---1-0-1---1-0-1-0---1-1-11-1---1-0-1-0-----1-0-1---1-0-1---1-0-1-0--4-4-4-4-1-1-1-1-|
                                            . . .. .
c |-----------------------------------|
g |-----------------------------------|
d#|-7-----8----5----7-----14----15----|
A#|---x16---x8---x8---x16----x8----x8-|
F |-5-----6----3----5-----12----13----|
A#|-----------------------------------|


(Breakdown 1)
                       (upwards raking harmonic)
c |------------------------------3*-----------------------------------|
g |------------------------------3*-----------------------------------|
d#|------------------------------3*-----------------------------------|
A#|-------------------------------------------------------------------|
F |-00-00-0-----------0-0-0-0-0-----00-00-0-----------5-------3-------|
A#|-00-00-0-00-0-00-0-1-1-1-1-1-----00-00-0-00-0-00-0---1-0-1---1-0-1-|
    .. .. . ..   ..   . . . . .     .. .. . ..   ..


c |---------------------------------------------------------------------------------|
g |---------------------------------------------------------------------------------|
d#|---------------------------------------------------------------------------------|
A#|---------------------------------------------------------------------------------|
F |-00-00-0-----------0-0-0-0-0-------------------00-00-0-----------5-------3-------|
A#|-00-00-0-00-0-00-0-1-1-1-1-1--3*-3*-3*-3*-3*---00-00-0-00-0-00-0---1-0-1---1-0-1-|
    .. .. . ..   ..   . . . . .                   .. .. . ..   ..


(Chorus 2)
110bpm (16th notes)---(114bpm (16th notes) for chorus)

c |----------------------------------------------------8-----8-------------|
g |-10-----10-----10-----10---8---10-----10-----10---------------11-----10-|
d#|----7-7----7-7----7-7----7---7----7-7----7-7----7-7---7-7---7----7-7----|
A#|------------------------------------------------------------------------|
F |------------------------------------------------------------------------|
A#|------------------------------------------------------------------------|
       . .    . .    . .    .   .    . .    . .    . .   . .   .    . .

(second half of 2nd chorus, replaces what is played in first chorus)
c |-------------------------------------------------------------|
g |-10-----10-----10-----10---------8-----8-----8-----8---------|
d#|----7-7----7-7----7-7----7-7-7-7---7-7---7-7---7-7---7-7-7-7-|
A#|-------------------------------------------------------------|
F |-------------------------------------------------------------|
A#|-------------------------------------------------------------|
       . .    . .    . .    . . . .   . .   . .   . .

c |---------------------------------------------------------------|
g |---------------------------------------------------------------|
d#|---------------------------------------------------------------|
A#|-0-0-0-0-0-0-0-0-3-3-3-3-3-3-3-8-8-8-8-8-8-8-8-5-5-5-5-5-5-5-5-|
F |-0-0-0-0-0-0-0-0-3-3-3-3-3-3-3-8-8-8-8-8-8-8-8-5-5-5-5-5-5-5-5-|
A#|-0-0-0-0-0-0-0-0-3-3-3-3-3-3-3-8-8-8-8-8-8-8-8-5-5-5-5-5-5-5-5-|


Bridge/breakdown

Lead (let ring)
c |-----------------|
g |----------8------|
d#|------8----------|
A#|-12-----------12-|
F |-----------------|
A#|-----------------|

c |-------------------|
g |-------------------|
d#|-------------------|
A#|-------------------|
F |-000-0-000-0-000-0-|
A#|-000-0-000-0-000-0-|
    ... . ... . ... .
c |--------------------------------------------------------------------------------------------------|
g |--------------------------------------------------------------------------------------------------|
d#|--------------------------------------------------------------------------------------------------|
A#|--------------------------------------------------------------------------------------------------|
F |-000-0-000-0-000-000-000-000-00000--000-0-000-0-000-000----000000-000-0-000-0-000-000-000-000-000-|
A#|-000-0-000-0-000-000-000-000-00000--000-0-000-0-000-000----000000-000-0-000-0-000-000-000-000-000-|
    ... . ... . ... ... ... ... .....  ... . ... . ... ...    ...... ... . ... . ... ... .........
c |-------------------|
g |-------------------|
d#|-------------------|
A#|-------------------|
F |-000-0-000-0-000-0-|
A#|-000-0-000-0-000-0-|
    ... . ... . ... .
c |------------------------------------------------------------------------------------------------------|
g |------------------------------------------------------------------------------------------------------|
d#|------------------------------------------------------------------------------------------------------|
A#|------------------------------------------------------------------------------------------------------|
F |-000-0-000-0-000-000-000-000-000--000-0-000-0-000-000-000-000-000-3*--000-0-000-0-000-000-000-000-000-|
A#|-000-0-000-0-000-000-000-000-000--000-0-000-0-000-000-000-000-000-----000-0-000-0-000-000-000-000-000-|
    ... . ... . ... ... ... ... ...  ... . ... . ... ... ... ... ...     ... . ... . ... ............
c |-------------------|
g |-------------------|
d#|-------------------|
A#|-------------------|
F |-000-0-000-0-000-0-|
A#|-000-0-000-0-000-0-|
    ... . ... . ... .


Legend-

.=Palm mute
*=harmonic (upwards rake is natural, the other one later is pinched)
/=slide
Suggest correction
Give kudos to tab author, rate the tab!
1 2 3 4 5
comments
print report bad tab
guest
You may want to rate the tab now too:
select rating
Wanna post a correction for this tab? Suggest correction