Oops, an error
Loading. Please wait.

Have Faith In Me Tab

version 1
version 1

Acoustic

Whole song

Interactive

69,231 views 54 this week
2 commentsread comments
1 2 3 4 5
x 4
add to favorites
launch autoscroll
font size
0
reset
how to read this tab
guitar tuner
×
Best way to learn
"Have Faith In Me"
Autoscroll
slow
fast
+/-
esc
set tempo
stop
Tuning
C G C F A D
Tuning: Drop C

[Intro]
D|-----------------------------------------------|    
A|-----10---10---10---10---8---8---7---7---------|   
F|---7----7----7----7----7---7---7---7-----------|   
C|-----------------------------------------------|(x11)
G|-----------------------------------------------|  
C|-----------------------------------------------| 

[Pre-Chorus]
D|-----------------------------------------------|
A|-----------------------------------------------|
F|-----------------------------------------------|
C|-----10---10---10---10-3333-5555---------------|
G|---7----7----7----7----3333-5555---------------|
C|-----------------------3333-5555---------------|

[Chorus]
D|-----------------------------------------------|
A|-----------------------------------------------|
F|---777777777-14141414-777777777-14141414-------|
C|-----------------------------------------------|(x2)
G|---555555555-12121212-555555555-12121212-------|
C|-----------------------------------------------|

D|-----------------------------------------------|
A|-----------------------------------------------|
F|---7777-9/11/9-7777-9/11/9-666666-121212/111111|
C|-----------------------------------------------|
G|---5555-7/9/7--5555-7/9/7--444444-101010/999---|
C|-----------------------------------------------|

[Verse 2]
D|-----------------------------------------------|
A|-----------------------------------------------|
F|-----------------------------------------------|
C|--999999999-000000-5555-22-555-----------------|(x2)
G|--999999999-000000-5555-22-555-----------------|    
C|--999999999-000000-5555-22-555-----------------|

[Pre-Chorus]
D|-----77777----7777----7777----7777-------------|
A|-----77777----7777----7777----7777-------------|
F|-----------------------------------------------|
C|--99-------00------55------33------------------|
G|--99-------00------55------33------------------|
C|--99-------00------55------33------------------|

D|-----77777----7777----7777---------------------|
A|-----77777----7777----7777---------------------|
F|-----------------------------------------------|
C|--99-------00------55------3333-5555-----------|
G|--99-------00------55------3333-5555-----------|
C|--99-------00------55------3333-5555-----------|

[Chorus] (x2)
D|-----------------------------------------------|
A|-----------------------------------------------|
F|---777777777-14141414-777777777-14141414-------|
C|-----------------------------------------------|(x2)
G|---555555555-12121212-555555555-12121212-------|
C|-----------------------------------------------|

D|-----------------------------------------------|
A|-----------------------------------------------|
F|---7777-9/11/9-7777-9/11/9-666666-121212/111111|
C|-----------------------------------------------|
G|---5555-7/9/7--5555-7/9/7--444444-101010/999---|
C|-----------------------------------------------|

[Bridge]
D|-----------------------------------------------|
A|-----------------------------------------------|
F|---44444444-8888-7777-6666-7777-6666-----------|
C|-----------------------------------------------|
G|---22222222-6666-5555-4444-5555-4444-----------|
C|-----------------------------------------------|

D|-----------------------------------------------|
A|-----------------------------------------------|
F|---44444444-7777777-9999999-1414141414---------|
C|-----------------------------------------------|
G|---22222222-5555555-7777777-1212121212---------|
C|-----------------------------------------------|

D|-----------------------------------------------|
A|-----------------------------------------------|
F|---44444444-8888-7777-6666-7777-6666-----------|
C|-----------------------------------------------|
G|---22222222-6666-5555-4444-5555-4444-----------|
C|-----------------------------------------------|

D|-----------------------------------------------|
A|-----------------------------------------------|
F|---444444444444-666666666666-777---------------|
C|-----------------------------------------------|
G|---222222222222-444444444444-555---------------|
C|-----------------------------------------------|

D|-----------------------------------------------|    
A|-----10---10---10---10---8---8---7---7---------|   
F|---7----7----7----7----7---7---7---7-----------|   
C|-----------------------------------------------|(x3)
G|-----------------------------------------------|  
C|-----------------------------------------------|

[Ending Chorus] (x2)
D|-----------------------------------------------|
A|-----------------------------------------------|
F|---777777777-14141414-777777777-14141414-------|
C|-----------------------------------------------|(x2)
G|---555555555-12121212-555555555-12121212-------|
C|-----------------------------------------------|

D|-----------------------------------------------|
A|-----------------------------------------------|
F|---7777-9/11/9-7777-9/11/9-666666-121212/111111|
C|-----------------------------------------------|
G|---5555-7/9/7--5555-7/9/7--444444-101010/999---|
C|-----------------------------------------------|

[Outro]
D|-----------------------------------------------|
A|-----------------------------------------------|
F|-----------------------------------------------|
C|---55555555555555555555555555555555555555------|
G|---55555555555555555555555555555555555555------|
C|-----------------------------------------------|
     **************************************
Suggest correction
comments
print report bad tab
2 comments total.
-1 reply
AraThiOn 60 Jul 22, 2011 11:57 PM

It more seems to me , they play in Drop B .

0 reply
faturputro 62 May 18, 2013 11:42 PM

it should be in drop B

guest
You may want to rate the tab now too:
select rating
Wanna post a correction for this tab? Suggest correction