Oops, an error
Loading. Please wait.

Have Faith In Me Tab

version 1
version 1

Whole song

Interactive

227,044 views 117 this week
6 commentsread comments
1 2 3 4 5
x 9
add to favorites
launch autoscroll
font size
0
reset
how to read this tab
guitar tuner
Autoscroll
slow
fast
+/-
esc
set tempo
stop
Help us to improve Ultimate-Guitar.com Take our survey!
×
[Intro/Verse One] - Gt 1

e|----------------------------------------------|
B|----8----8----8----8--------------------------|
G|------------------------10----10----9----9----|
D|-10---10---10---10---10----10----10---10------|
A|----------------------------------------------|
D|----------------------------------------------| (x12)


[Verse One] - Gt 2

e|-------------------------------------|
B|-------------------------------------|
G|-------------------------------------|
D|-77-22-33-00-33-77--22-33-0000-3333--|
A|-77-22-33-00-33-77--22-33-0000-3333--|
D|-77-22-33-00-33-77--22-33-0000-3333--|
                            .... 

[Chorus One]

Gt 1
e|------------------------------------------------------------|
B|------------------------------------------------------------|
G|-555555/12121212121212121212--555555/12121212121212121212---|
D|-xxxxxx--x-x-x-x-x-x-x-x-x-x--xxxxxx--x-x-x-x-x-x-x-x-x-x---|
A|-333333/10101010101010101010--333333/10101010101010101010---|
D|------------------------------------------------------------|

e|-------------------------------------------------|
B|-------------------------------------------------|
G|-5-5-7/9\7--5-5-5-7/9\7-44444444-10101010-99-77--|
D|-x-x-x-x-x--x-x-x-x-x-x-xxxxxxxx--x-x-x-x-xx-xx--|
A|-3-3-5/7\5--3-3-3-5/7\5-22222222--8-8-8-8-77-55--|
D|-------------------------------------------------|

Gt 2
e|----------------------------------|
B|----------------------------------|
G|----------------------------------|
D|-7-------3-------2-------5--------|
A|-7-(x16)-3-(x16)-2-(x16)-5-(x16)--|
D|-7-------3-------2-------5--------|


[Verse Two]

 Gt 1 & 2 
e|--------------------------------------------------|
B|--------------------------------------------------|
G|--------------------------------------------------|
D|--------------------------------------------------|
A|-77-7-7-77-7-7-22-2-2-2~-33-3-3-33-3-3-00-0-3-3~--|
D|-77-7-7-77-7-7-22-2-2-2~-33-3-3-33-3-3-00-0-3-3~--|
   ..   .    .   ..        ..   .    .   ..      

Gt 1 (listen for pattern)
e|-----------------|
B|-----------------|
G|-----9----9------|
D|--10---10---10---|
A|-----------------|
D|-----------------| (x7)

Gt 2
e|-------------------------------------|
B|-------------------------------------|
G|-------------------------------------|
D|-77-22-33-00-33-77--22-33-0000-3333--|
A|-77-22-33-00-33-77--22-33-0000-3333--|
D|-77-22-33-00-33-77--22-33-0000-3333--|
                            .... 


[Chorus Two] (x2)

Gt 1
e|------------------------------------------------------------|
B|------------------------------------------------------------|
G|-555555/12121212121212121212--555555/12121212121212121212---|
D|-xxxxxx--x-x-x-x-x-x-x-x-x-x--xxxxxx--x-x-x-x-x-x-x-x-x-x---|
A|-333333/10101010101010101010--333333/10101010101010101010---|
D|------------------------------------------------------------|

e|-------------------------------------------------|
B|-------------------------------------------------|
G|-5-5-7/9\7--5-5-5-7/9\7-44444444-10101010-99-77--|
D|-x-x-x-x-x--x-x-x-x-x-x-xxxxxxxx--x-x-x-x-xx-xx--|
A|-3-3-5/7\5--3-3-3-5/7\5-22222222--8-8-8-8-77-55--|
D|-------------------------------------------------|

Gt 2
e|----------------------------------|
B|----------------------------------|
G|----------------------------------|
D|-7-------3-------2-------5--------|
A|-7-(x16)-3-(x16)-2-(x16)-5-(x16)--|
D|-7-------3-------2-------5--------|


[Bridge]

Gt 1 & Gt 2
e|-------------------------------------|
B|-------------------------------------|
G|-------------------------------------|
D|-333-333-77-7777-555-555-00-2222-----|
A|-333-333-77-7777-555-555-00-2222-----|
D|-333-333-77-7777-555-555-00-2222-----| (x3)

Gt 1 & Gt 2
e|------------------------------------|
B|------------------------------------|
G|------------------------------------|
D|-333-333-33-3333-555-555-55-5555----|
A|-333-333-33-3333-555-555-55-5555----|
D|-333-333-33-3333-555-555-55-5555----|

Gt 2
e|--------------|
B|--------------|
G|--------------|
D|-7~-----------|
A|-7~-----------|
D|-7~-----------|

Gt 1
e|----------------------------------------------|
B|----8----8----8----8--------------------------|
G|------------------------10----10----9----9----|
D|-10---10---10---10---10----10----10---10------|
A|----------------------------------------------|
D|----------------------------------------------| (x3)

e|--------|
B|----8---|
G|--------|
D|-10-----|
A|--------|
D|--------| (Delay)


[Chorus Three] (x2)

Gt 1
e|------------------------------------------------------------|
B|------------------------------------------------------------|
G|-555555/12121212121212121212--555555/12121212121212121212---|
D|-xxxxxx--x-x-x-x-x-x-x-x-x-x--xxxxxx--x-x-x-x-x-x-x-x-x-x---|
A|-333333/10101010101010101010--333333/10101010101010101010---|
D|------------------------------------------------------------|

e|-------------------------------------------------|
B|-------------------------------------------------|
G|-5-5-7/9\7--5-5-5-7/9\7-44444444-10101010-99-77--|
D|-x-x-x-x-x--x-x-x-x-x-x-xxxxxxxx--x-x-x-x-xx-xx--|
A|-3-3-5/7\5--3-3-3-5/7\5-22222222--8-8-8-8-77-55--|
D|-------------------------------------------------|

Gt 2
e|----------------------------------|
B|----------------------------------|
G|----------------------------------|
D|-7-------3-------2-------5--------|
A|-7-(x16)-3-(x16)-2-(x16)-5-(x16)--|
D|-7-------3-------2-------5--------|


[Outro]   

Gt 1 & Gt 2
e|---------------------------------------------------------------------|
B|---------------------------------------------------------------------|
G|---------------------------------------------------------------------|
D|-33333333-00000000-77777777-55555555-33333333-00000000-77777777-555--|
A|-33333333-00000000-77777777-55555555-33333333-00000000-77777777-555--|
D|-33333333-00000000-77777777-55555555-33333333-00000000-77777777-555--|
   ........ ........ ........ ........ ........ ........ ........ ...



************************************

| x  Dead note
| /  Slide up
| \  Slide down
| ~  Vibrato

************************************
Suggest correction
comments
print report bad tab
6 comments total. Showing first comments.
+1 reply
shugo449 530 Feb 24, 2009 04:16 PM

drop c

0 reply
Metalcore Jero 91 Dec 08, 2009 01:44 AM

change the tuning to drop C and move everything down two frets for it to be correct

0 reply
Metalcore Jero 91 Dec 08, 2009 01:49 AM

move everything down two frets and change tuning to drop C

guest
You may want to rate the tab now too:
select rating
Wanna post a correction for this tab? Suggest correction