Oops, an error
Loading. Please wait.

Have Faith In Me Tab

version 2
version 2

Whole song

Interactive

305,246 views 195 this week
21 commentsread comments
1 2 3 4 5
x 115
add to favorites
launch autoscroll
font size
0
reset
how to read this tab
guitar tuner
×
Best way to learn
"Have Faith In Me"
Autoscroll
slow
fast
+/-
esc
set tempo
stop
Author
Tuning
  follow
C G C F A D
Drop C Tuning.
Rhythm Guitar.
I may tab the Lead but its hard to hear in this song

[Intro] (0:00)
D|-------------------------------------|
A|---10---10---10---10---8---8---7---7-|
F|-7----7----7----7----7---7---7---7---| (x8)
C|-------------------------------------|
G|-------------------------------------|
C|-------------------------------------|

[Verse 1] (0:32)
D|-----------------------------------------------|
A|-----------------------------------------------|
F|-----------------------------------------------|
C|-99---00---55---22-55-99----00—-55---2222-5555-|
G|-99---00---55---22-55-99----00—-55---2222-5555-|
C|-99---00---55---22-55-99----00—-55---2222-5555-|
/|-..---..---..---..-..-..----..--..---....------|

[Chorus 1] (0:45)
D|---------------------------------------------------------------------|
A|---------------------------------------------------------------------|
F|---------------------------------------------------------------------|
C|-9999999999999999-0000000000000000-5555555555555555-7777777777777777-|
G|-9999999999999999-0000000000000000-5555555555555555-7777777777777777-|
C|-9999999999999999-0000000000000000-5555555555555555-7777777777777777-|

[Verse 2] (0:58) (listen carefully to the strumming pattern)
D|--------------------------------|
A|--------------------------------|
F|--------------------------------|
C|-99999999|00000|5555555|2222|55-|
G|-99999999|00000|5555555|2222|55-|
C|-99999999|00000|5555555|2222|55-|
/|-..-.--.-|..---|..-.--.|..-.|---|

(1:10)
D|-----------------------------------------------|
A|-----------------------------------------------|
F|-----------------------------------------------|
C|-99---00---55---22-55-99----00—-55---2222-5555-|
G|-99---00---55---22-55-99----00—-55---2222-5555-|
C|-99---00---55---22-55-99----00—-55---2222-5555-|
/|-..---..---..---..-..-..----..--..---....------|

[Chorus 2] (1:23)
D|---------------------------------------------------------------------|
A|---------------------------------------------------------------------|
F|---------------------------------------------------------------------|
C|-9999999999999999-0000000000000000-5555555555555555-7777777777777777-| (x2)
G|-9999999999999999-0000000000000000-5555555555555555-7777777777777777-|
C|-9999999999999999-0000000000000000-5555555555555555-7777777777777777-|

[Breakdown] (1:49)
D|--------------------------------------|
A|--------------------------------------|
F|--------------------------------------|
C|-555-x555--99-9999—-777-x777—-22-4444-| (x3)
G|-555-x555--99-9999—-777-x777—-22-4444-|
C|-555-x555—-99-9999—-777-x777—-22-4444-|

(2:08)
D|--------------------------------------|
A|--------------------------------------|
F|--------------------------------------|
C|-555-x555--55-5555—-777-x777—-77-7777-|
G|-555-x555--55-5555—-777-x777—-77-7777-|
C|-555-x555—-55-5555—-777-x777—-77-7777-|


[Bridge] (2:14)                               
D|-------------------------------------|      
A|---10---10---10---10---8---8---7---7-|      
F|-7----7----7----7----7---7---7---7---| (x3) 
C|-------------------------------------|      
G|-------------------------------------|      
C|-------------------------------------|      

(2:24)
D|-----|
A|-----|
F|-----|
C|-55~-|
G|-55~-|
C|-55~-|

[Chorus 3] (2:27)
D|---------------------------------------------------------------------|
A|---------------------------------------------------------------------|
F|---------------------------------------------------------------------|
C|-9999999999999999-0000000000000000-5555555555555555-7777777777777777-| (x2)
G|-9999999999999999-0000000000000000-5555555555555555-7777777777777777-|
C|-9999999999999999-0000000000000000-5555555555555555-7777777777777777-|

[Outro] (2:52)
D|-------------------------------------------------------------------|
A|-------------------------------------------------------------------|
F|-------------------------------------------------------------------|
C|-55555555-22222222-99999999-00000000-55555555-22222222-99999999-00-|
G|-55555555-22222222-99999999-00000000-55555555-22222222-99999999-00-|
C|-55555555-22222222-99999999-00000000-55555555-22222222-99999999-00-|
/|-........-........-........-........-........-........-........_..-|

************************************

| (10)10’s Not 1’s, there are not 1’s in the song.
| (X) Mutes.
| (.) Palm Mutes.
| (~) Hold Note.

************************************
Suggest correction
comments
print report bad tab
21 comments total. Showing first comments.
+9 reply
someguy9d 10 Mar 16, 2009 06:39 AM

i dont see anything wrong with this tab nice job man ADTR XD.

+5 reply
someguy9d 10 Mar 16, 2009 06:50 AM

dude keep tabing all your songs are perfect or almost perfect. thanks man =D.

+8 reply
ryanfoust 40 Mar 16, 2009 08:13 PM

nice job with the tab...now, i'm just sayin in case someone else would like to know cuz i can figure it out, but you didn't tab the 2nd guitar part during the choruses
other than that its good

guest
You may want to rate the tab now too:
select rating
Wanna post a correction for this tab? Suggest correction