Oops, an error
Loading. Please wait.

Have Faith In Me Tab

version 3
version 3

Whole song

Interactive

18,981 views 3 this week
no commentswrite comment
1 2 3 4 5
x 3
add to favorites
launch autoscroll
font size
0
reset
how to read this tab
guitar tuner
Autoscroll
slow
fast
+/-
esc
set tempo
stop
Help us to improve Ultimate-Guitar.com Take our survey!
×
Author
Difficulty
Tuning
novice
C G C F A D
Have Faith In Me
A Day To Remember
Tuning: Drop C

Intro/Verse One
D|-----------------------------------------------------|
A|----10---10---10---10--------------------------------|
F|-----------------------------12----12---11--11-------|
C|-12---12---12---12---12----12---12----12-------------|
G|-----------------------------------------------------|
C|----------------------------------------------| (x12-|
Chorus One

D|------------------------------------------------------------|
A|------------------------------------------------------------|
F|-777777/14141414141414141414--777777/14141414141414141414---|
C|-xxxxxx--x-x-x-x-x-x-x-x-x-x--xxxxxx--x-x-x-x-x-x-x-x-x-x---|
G|-555555/12121212121212121212--555555/12121212121212121212---|
C|------------------------------------------------------------|

D|-----------------------------------------------------------|
A|-----------------------------------------------------------|
F|-7-7-9/11\9--7-7-7-9/11\-7-66666666-12-12-12-12---11-99----|
C|-x-x-x-x-x--x-x-x-x-x-x-xxxxxxxx--x-x-x-x-xx-xxxxxxxxxx----|
G|-5-5-7/9\--7--5-5-3-7/9\-7-44444444-10-10-10-10---99-77----|
C|-----------------------------------------------------------|

Verse Two
D|--------------------------------------------------|
A|--------------------------------------------------|
F|--------------------------------------------------|
C|--------------------------------------------------|
G|-99-9-9-99-9-9-44-4-4-4~-55-5-5-55-5-5-00-0-5-5~--|
C|-99-9-9-99-9-9-44-4-4-4~-55-5-5-55-5-5-00-0-5-5~--|

D|---------------------|
A|---------------------|
F|-----11----11--------|
C|--12----12----12-----|
G|---------------------|
C|---------------------| (x7)

Chorus Two (x2)
D|------------------------------------------------------------|
A|------------------------------------------------------------|
F|-777777/14141414141414141414--777777/14141414141414141414---|
C|-xxxxxx--x-x-x-x-x-x-x-x-x-x--xxxxxx--x-x-x-x-x-x-x-x-x-x---|
G|-555555/12121212121212121212--555555/12121212121212121212---|
C|------------------------------------------------------------|

D|-----------------------------------------------------------|
A|-----------------------------------------------------------|
F|-7-7-9/11\9--7-7-7-9/11\-7-66666666-12-12-12-12---11-99----|
C|-x-x-x-x-x--x-x-x-x-x-x-xxxxxxxx--x-x-x-x-xx-xxxxxxxxxx----|
G|-5-5-7/9\--7--5-5-3-7/9\-7-44444444-10-10-10-10---99-77----|
C|-----------------------------------------------------------|


Bridge
D|-------------------------------------|
A|-------------------------------------|
F|-------------------------------------|
C|-555-555-99-9999-777-777-00-4444-----|
G|-555-555-99-9999-777-777-00-4444-----|
C|-555-555-99-9999-777-777-00-4444-----| (x3)

D|------------------------------------|
A|------------------------------------|
F|------------------------------------|
C|-555-555-55-5555-777-777-77-7777----|
G|-555-555-55-5555-777-777-77-7777----|
C|-555-555-55-5555-777-777-77-7777----|

D|----------------------------------------------------|
A|----10---10---10---10-------------------------------|
F|-----------------------------12----12---11--11------|
C|-12---12---12---12---12----12---12----12------------|
G|----------------------------------------------------|
C|----------------------------------------------------| (x3)

D|-----------|
A|----10-----|
F|-----------|
C|-12--------|
G|-----------|
C|-----------| (Delay)

Chorus Three (x2)

D|------------------------------------------------------------|
A|------------------------------------------------------------|
F|-777777/14141414141414141414--777777/14141414141414141414---|
C|-xxxxxx--x-x-x-x-x-x-x-x-x-x--xxxxxx--x-x-x-x-x-x-x-x-x-x---|
G|-555555/12121212121212121212--555555/12121212121212121212---|
C|------------------------------------------------------------|


D|-----------------------------------------------------------|
A|-----------------------------------------------------------|
F|-7-7-9/11\9--7-7-7-9/11\-7-66666666-12-12-12-12---11-99----|
C|-x-x-x-x-x--x-x-x-x-x-x-xxxxxxxx--x-x-x-x-xx-xxxxxxxxxx----|
G|-5-5-7/9\--7--5-5-3-7/9\-7-44444444-10-10-10-10---99-77----|
C|-----------------------------------------------------------|


Outro
D|---------------------------------------------------------------------|
A|---------------------------------------------------------------------|
F|---------------------------------------------------------------------|
C|-55555555-00000000-99999999-77777777-55555555-00000000-99999999-777--|
G|-55555555-00000000-99999999-77777777-55555555-00000000-99999999-777--|
C|-55555555-00000000-99999999-77777777-55555555-00000000-99999999-777--|
Suggest correction
Give kudos to tab author, rate the tab!
1 2 3 4 5
comments
print report bad tab
guest
You may want to rate the tab now too:
select rating
Wanna post a correction for this tab? Suggest correction