Oops, an error
Loading. Please wait.

Have Faith In Me Bass Tab

version 4
version 4

Whole song

Interactive

4,206 views 6 this week
1 commentread comment
1 2 3 4 5
excellent!
x 3
add to favorites
launch autoscroll
font size
0
reset
guitar tuner
Tab Pro tools
  • play this tab
  • loop segment
  • change instrument
  • show fretboard
  • metronome
×
Best way to learn
"Have Faith In Me"
Autoscroll
slow
fast
+/-
esc
set tempo
stop
Difficulty
intermediate
Have Faith In Me|
----------------|

Intro

G|----------------------------------------------------------------|
D|----------------------------------------------------------------|
A|00-33----55----00-x33----55----00-33----55----00-x33----55------|
E|------11----11--------11----11-------11----11--------11----11---|

Verse 1

G|-------------------------------------|
D|-------------------------------------|
A|00-33----55----00-X33----5555--------|
E|------11----11--------11------1111---|

Chorus

G|--------------------------------------------------------------------------|
D|--------------------------------------------------------------------------|
A|--------------------------------------------------------------------------|
E|5555555555555555-8888888888888888-1111111111111111-4444444444444444-------|

Verse 2

G|-----------------------------------------|
D|-----------------------------------------| X2
A|00000000-33333333----------5555----------|
E|------------------11111111------1111-----|

G|-------------------------------------|
D|-------------------------------------|
A|00-33----55----00-X33----55----------|
E|------11----11--------11----11-------|

Chorus

G|--------------------------------------------------------------------------|
D|--------------------------------------------------------------------------| X2
A|--------------------------------------------------------------------------|
E|5555555555555555-8888888888888888-1111111111111111-4444444444444444-------|

Bridge

G|-------------------------------------|
D|-------------------------------------| X3
A|--------------------------55---------|
E|111-x111-55-5555-4444-x44----0000----|

G|-------------------------------------|
D|-------------------------------------|
A|-------------------------------------|
E|111-x111-11-1111-4444-x44-44-4444----|

G|-------------------------------------|
D|-------------------------------------|
A|00-33----55----00-x33----------------|
E|------11----11--------11-------------|

Chorus

G|--------------------------------------------------------------------------|
D|--------------------------------------------------------------------------| X2
A|--------------------------------------------------------------------------|
E|5555555555555555-8888888888888888-1111111111111111-4444444444444444-------|

G|---------------------------------------|
D|---------------------------------------| X 2
A|---------55555555-00000000-------------|
E|11111111-------------------44444444----|


This is the song with the fourth string in E ... for those who do not want to tune in C 
It is very easy to play and fun

by SickEyeless
comments
We did not receive enough feedback on this tab! Please rate:
print report bad tab
1 2 3 4 5
1 comment total.
+1 reply
RozzD wrote on December 6 2013, 12:40 am

In the chorus, replace the 4's with 3's. It sounds better. Great tab!

I want to post or [tab]
guest
You may want to rate the tab now too:
select rating
Please do not post tabs as comments. Select "correction" instead!