Oops, an error
Loading. Please wait.

Have Faith In Me Tab

version 5
version 5

Whole song

Interactive

3,435 views 1 this week
1 commentread comment
1 2 3 4 5
please rate
add to favorites
launch autoscroll
font size
0
reset
how to read this tab
guitar tuner
Autoscroll
slow
fast
+/-
esc
set tempo
stop
Help us to improve Ultimate-Guitar.com Take our survey!
×
Author
Intro:
Guitar 1:

D|----------------------|------------------|
A|----10---10---10---10-|---8---8---7---7--|
F|--7----7----7----7----|-7---7---7---7----|Repeat
C|----------------------|------------------|
G|----------------------|------------------|
C|----------------------|------------------|

Guitar 2:

D|------|--------|--------|--------------|------|--------|----------|
A|------|--------|--------|--------------|------|--------|----------|
F|------|--------|--------|--------------|------|--------|----------|
C|-4-4--|--------|--------|--------------|-4-4--|--------|----------|
G|-2-2--|---0-0--|---5-5--|---2-2---5-5--|-2-2--|---0-0--|---5-5----|
C|------|---0-0--|---5-5--|---2-2---5-5--|------|---0-0--|---5-5----|
   Palm mute----->

D|------------------|
A|------------------|
F|------------------|
C|------------------|
G|-2-2-2---5-5-5----|
C|-2-2-2---5-5-5----|
  Release palm mute

Chorus:
Guitar 1:

D|---------------------------------|---------------------------------|
A|---------------------------------|---------------------------------|
F|---------------------------------|---------------------------------|
C|-4-4-4-4-4-4-4-4-4-4-4-4-4-4-4-4-|---------------------------------|
G|-2-2-2-2-2-2-2-2-2-2-2-2-2-2-2-2-|-0-0-0-0-0-0-0-0-0-0-0-0-0-0-0-0-|
C|---------------------------------|-0-0-0-0-0-0-0-0-0-0-0-0-0-0-0-0-|

D|---------------------------------|---------------------------------|
A|---------------------------------|---------------------------------|
F|---------------------------------|---------------------------------|
C|---------------------------------|---------------------------------|
G|-5-5-5-5-5-5-5-5-5-5-5-5-5-5-5-5-|-7-7-7-7-7-7-7-7-7-7-7-7-7-7-7-7-|
C|-5-5-5-5-5-5-5-5-5-5-5-5-5-5-5-5-|-7-7-7-7-7-7-7-7-7-7-7-7-7-7-7-7-|

Guitar 2:

D|-----------------|-------------------------|-----------------|
A|-----------------|-------------------------|-----------------|
F|-7-7-7-7-7-7-7-7-|-14-14-14-14-14-14-14-14-|-7-7-7-7-7-7-7-7-|
C|-----------------|-------------------------|-----------------|
G|-5-5-5-5-5-5-5-5-|-12-12-12-12-12-12-12-12-|-5-5-5-5-5-5-5-5-|
C|-----------------|-------------------------|-----------------|

D|-------------------------|----------------------------|
A|-------------------------|----------------------------|
F|-14-14-14-14-14-14-14-14-|-7-7-7-7---7/11-9/7-7-7-7-7-|
C|-------------------------|----------------------------|
G|-12-12-12-12-12-12-12-12-|-5-5-5-5---9/9--7/5-5-5-5-5-|
C|-------------------------|----------------------------|

D|---------------------------|-------------|--------------|
A|---------------------------|-------------|--------------|
F|-9/11-9/7--6-6-6-6-6-6-6-6-|-14-14-14-14-|-12-12--11-11-|
C|---------------------------|-------------|--------------|
G|-7/9--7/5--4-4-4-4-4-4-4-4-|-12-12-12-12-|-10-10---9-9--|
C|---------------------------|-------------|--------------|

Verse:

D|-----------------|-----------------|-----------------|-----------------|
A|-----------------|-----------------|-----------------|-----------------|
F|-----------------|-----------------|-----------------|-----------------|
C|-4-4-4-4-4-4-4-4-|-----------------|-----------------|-----------------|
G|-2-2-2-2-2-2-2-2-|-0-0-0-0-0-0-0-0-|-5-5-5-5-5-5-5-5-|-2-2-2-2-5-5-5-5-|
C|-----------------|-0-0-0-0-0-0-0-0-|-5-5-5-5-5-5-5-5-|-2-2-2-2-5-5-5-5-|
   * * ^ * ^ ^ * ^   * * ^ * ^ * ^ ^   * * ^ * ^ ^ * ^   * * ^ * ^ * ^ ^
                                                              Repeat

Bridge:

D|---------------|-------------|---------------|-------------|
A|---------------|-------------|---------------|-------------|
F|---------------|-------------|---------------|-------------|
C|-5-5-5---5-5-5-|-------------|---------------|-------------| Play 3x
G|-5-5-5---5-5-5-|-9-9---9-9-9-|-7-7-7---7-7-7-|-2-2---4-4-4-|
C|-5-5-5---5-5-5-|-9-9---9-9-9-|-7-7-7---7-7-7-|-2-2---4-4-4-|

Then:

D|---------------|-------------|---------------|-------------||
A|---------------|-------------|---------------|-------------||
F|---------------|-------------|---------------|-------------||
C|---------------|-------------|---------------|-------------||
G|-5-5-5---5-5-5-|-5-5---5-5-5-|-7-7-7---7-7-7-|-7-7---7-7-7-||
C|-5-5-5---5-5-5-|-5-5---5-5-5-|-7-7-7---7-7-7-|-7-7---7-7-7-||

Outro:

D|-----------------|-----------------|-----------------|-----------------|
A|-----------------|-----------------|-----------------|-----------------|
F|-----------------|-----------------|-----------------|-----------------|
C|-----------------|-----------------|-4-4-4-4-4-4-4-4-|-----------------|
G|-5-5-5-5-5-5-5-5-|-2-2-2-2-2-2-2-2-|-2-2-2-2-2-2-2-2-|-0-0-0-0-0-0-0-0-|
C|-5-5-5-5-5-5-5-5-|-2-2-2-2-2-2-2-2-|-----------------|-0-0-0-0-0-0-0-0-|
   Palm Mute---->                                         Repeat


And that's pretty much it. =)

*******Key***********

^   Accent
*   Palm Mute
Suggest correction
Give kudos to tab author, rate the tab!
1 2 3 4 5
comments
print report bad tab
1 comment total.
0 reply
Lokiluketyrrell 10 wrote on August 9 2013, 11:15 am

I think its all correct thanks! good Tab

guest
You may want to rate the tab now too:
select rating
Wanna post a correction for this tab? Suggest correction