Oops, an error
Loading. Please wait.

Heartless Tab

version 2
version 2

Whole song

Interactive

4,831 views 6 this week
3 commentsread comments
1 2 3 4 5
not so good
x 6
add to favorites
launch autoscroll
font size
0
reset
how to read this tab
guitar tuner
Autoscroll
slow
fast
+/-
esc
set tempo
stop
Help us to improve Ultimate-Guitar.com Take our survey!
×
Author
Difficulty
Tuning
intermediate
C G C F A D
-------------------------------------------------------------------------------
                            A Day To Remember - Heartless (Re-Released)
-------------------------------------------------------------------------------
Tabbed by: Rroni-DT


Tuning: E-A-D-G-B-E (standard)


0:00 - 0:20
(muted)
e|---------------------------------------------------------------------------|
B|---------------------------------------------------------------------------|
G|---------------------------------------------------------------------------|
D|---------------------------------------------------------------------------|
A|-----------------------------3-2---------------------------------3-2-------|
E|-2-0-2-0-2-0-2-0-2-0-2-0-2-0-----3-2-2-0-2-0-2-0-2-0-2-0-2-0-2-0-----3-2---|


0:20 - 0:28
(muted)
e|---------------------------------------------------------------------------|
B|---------------------------------------------------------------------------|
G|---------------------------------------------------------------------------|
D|-4-4---4-4--444--4-4----4-4---4-4--444--4-4--------------------------------|
A|-4-4---4-4--444--4-4----4-4---4-4--444--4-4--------------------------------|
E|-2-2---2-2--222--2-2----2-2---2-2--222--2-2--------------------------------|


0:28 - 0:45
(muted)
e|---------------------------------------------------------------------------|
B|---------------------------------------------------------------------------|
G|---------------------------------------------------------------------------|
D|------------------------------8-----6-----6--------------------------------|
A|-----11-10-10-----11-10-10----8-----6-----6--------11-10-10-----11-10-10---|
E|-8-8----------8-8-------------6-----4-----4----8-8----------8-8------------|


0:45 - 1:05
(muted)
e|---------------------------------------------------------------------------|
B|---------------------------------------------------------------------------|
G|---------------------------------------------------------------------------|
D|---------------------------------------------------------------------------|
A|-----------------------------3-2---------------------------------3-2-------|
E|-2-0-2-0-2-0-2-0-2-0-2-0-2-0-----3-2-2-0-2-0-2-0-2-0-2-0-2-0-2-0-----3-2---|


1:05 - 1:18
(muted)
e|---------------------------------------------------------------------------|
B|---------------------------------------------------------------------------|
G|---------------------------------------------------------------------------|
D|-4-4---4-4--4-4-4-4-4------------4-4---4-4--4-4-4-4-4-------------------4-4|
A|-4-4---4-4--4-4-4-4-4------------4-4---4-4--4-4-4-4-4-------------------4-4|
E|-2-2---2-2--2-2-2-2-2------------2-2---2-2--2-2-2-2-2-------------------2-2|

1:18 - 1:37
(muted)
e|---------------------------------------------------------------------------|
B|---------------------------------------------------------------------------|
G|---------------------------------------------------------------------------|
D|------------------------------8-----6-----6--------------------------------|
A|-----11-10-10-----11-10-10----8-----6-----6--------11-10-10-----11-10-10---|
E|-8-8----------8-8-------------6-----4-----4----8-8----------8-8------------|


1:37 - 1:52
(muted)
e|---------------------------------------------------------------------------|
B|---------------------------------------------------------------------------|
G|---------------------------------------------------------------------------|
D|--5----------6-6--5----------6-6--5----------------------------------------|
A|--3----------4-4--3----------4-4--3----------------------------------------|
E|--3----------4-4--3----------4-4--3----------------------------------------|


1:52 - 2:09
(muted)
e|---------------------------------------------------------------------------|
B|---------------------------------------------------------------------------|
G|---------------------------------------------------------------------------|
D|--5-5---5-5-5-5-5-5---6-6---5-5-5-5-5-5---6-6---------------------------6-6|
A|--3-3---3-3-3-3-3-3---4-4---3-3-3-3-3-3---4-4---------------------------4-4|
E|--3-3---3-3-3-3-3-3---4-4---3-3-3-3-3-3---4-4---------------------------4-4|


2:09 - 3:00
(muted)
e|---------------------------------------------------------------------------|
B|---------------------------------------------------------------------------|
G|---------------------------------------------------------------------------|
D|--5-5---5-5-5-5-5-5--------5--5---5-5-5-5-5-5------------------------------|
A|--3-3---3-3-3-3-3-3--------3--3---3-3-3-3-3-3------------------------------|
E|--3-3---3-3-3-3-3-3--------3--3---3-3-3-3-3-3------------------------------|

************************************

| /   slide up
| \   slide down
| h   hammer-on
| p   pull-off
| ~   vibrato
| +   harmonic
| x   Mute note
| b   Bend
| pb  Pre-bend
| br  Bend release
| pbr Pre-bend release
| brb Bend release bend

************************************
Suggest correction
comments
print report bad tab
3 comments total.
0 reply
elleild 121 wrote on March 8 2010, 11:12 am

Not good, they play thier songs in Drop C and this doesnt not sound like it at all

+1 reply
Rroni-DT 68 wrote on March 9 2010, 10:35 am

thats my arrangement for Standard Tuning stupidd. I tried to figure it out on standard tuninng.

+3 reply
elleild 121 wrote on March 10 2010, 11:39 am

Well its not even close to being right anyway

guest
You may want to rate the tab now too:
select rating
Wanna post a correction for this tab? Suggest correction