Oops, an error
Loading. Please wait.

Heres To The Past Bass Tab

version 1
version 1

Whole song

Interactive

25 views 1 this week
no commentswrite comment
1 2 3 4 5
3 more votes to show rating
add to favorites
launch autoscroll
font size
0
reset
guitar tuner
Autoscroll
slow
fast
+/-
esc
set tempo
stop
Help us to improve Ultimate-Guitar.com Take our survey!
×
Author
Difficulty
Tuning
novice
C G C F A D
A Day To Remember - Here's to the Past

Tabbed by: Ash (XxThreeCheersxX)
email: burdickash@gmail.com

Tuning CGCF

Intro (come in with the gang vocals of "Here's to the Past")
F|-----|
C|-----|
G|-----|
C|-15\-|

Main Riff
F|-----------------------------------------------------------|
C|-----------------------------------------------------------|
G|------------------------------1-1--1-1---------------------| x 2
C|-5-5--5-5--1-1--1-1--1-1-1-1------------3-3--3-3--3-3-3-3--|

F|-------------------------------------------|
C|-------------------------------------------|
G|-------------------------------------------|
C|-5----5-5-0-1~--------5----5-5-0-1~--------|

Verse I x 2
F|-----------------------------------------------------------------|
C|-----------------------------------------------------------------|
G|-----------------------------------------------------------------|
C|-5-5-5-5-5-5-5-5-5-5-5-5-5-5-5-5-8-8-8-8-8-8-8-8-8-8-8-8-8-8-8-8-|

F|-----------------------------------------------------------------|
C|-----------------------------------------------------------------|
G|-----------------------------------------------------------------|
C|-1-1-1-1-1-1-1-1-1-1-1-1-1-1-1-1-3-3-3-3-3-3-3-3-3-3-3-3-3-3-3-3-|

Pre-Chorus
F|----------------------------------------------------------|
C|----------------------------------------------------------|
G|----------------------------------------------------------| x 2
C|-5-5--5-8-8--8-10-10--10-13-13-13--x-x-1~-----------------|

F|-----------------------------------------------------------------|
C|-----------------------------------------------------------------|
G|-3-3-3-3-3-3-3-3-3-3-3-3-3-3-3-3---------------------------------|
C|---------------------------------1-1-1-1-1-1-1-1-1-1-1-1-1-1-1-1-|

F|-----------------------------------------------------------------|
C|-----------------------------------------------------------------|
G|-3-3-3-3-3-3-3-3-3-3-3-3-3-3-3-3---------------------------------|
C|---------------------------------1~------------------------------|

Chorus
F|-----------------------------------------------------------------|
C|-----------------------------------------------------------------|
G|-----------------------------------------------------------------| x 2
C|-5-5-5-5-5-5-5-5-5-5-5-5-5-5-5-5-1-1-1-1-1-1-1-1-1-1-1-1-1-1-1-1-|

F|-----------------------------------------------------------------|
C|-----------------------------------------------------------------|
G|-3-3-3-3-3-3-3-3-3-3-3-3-3-3-3-3---------------------------------|
C|---------------------------------1-1-1-1-1-1-1-1-1-1-1-1-1-1-1-1-|

F|-----------------------------------------------------------------|
C|-----------------------------------------------------------------|
G|-3-3-3-3-3-3-3-3-3-3-3-3-3-3-3-3---------------------------------|
C|---------------------------------1~------------------------------|

Post-Chorus
F|--------------------------------|
C|--------------------------------|
G|--------------------------------|
C|-5x---------------1-1-1-1-3x----|

Verse II
F|-----------------------------------------------------------------|
C|-----------------------------------------------------------------|
G|-----------------------------------------------------------------|
C|-5-5-5-5-5-5-5-5-5-5-5-5-5-5-5-5-8-8-8-8-8-8-8-8-8-8-8-8-8-8-8-8-|

F|-----------------------------------------------------------------|
C|-----------------------------------------------------------------|
G|-----------------------------------------------------------------|
C|-1-1-1-1-1-1-1-1-1-1-1-1-1-1-1-1-3-3-3-3-3-3-3-3-3-3-3-3-3-3-3-3-|

F|-----------------------------------------------------------------|
C|-----------------------------------------------------------------|
G|-----------------------------------------------------------------|
C|-5-5-5-5-5-5-5-5-5-5-5-5-5-5-5-5-8-8-8-8-8-8-8-8-8-8-8-8-8-8-8-8-|

F|-----------------------------------------------------------------|
C|-----------------------------------------------------------------|
G|-----------------------------------------------------------------|
C|-1-1-1-1-1-1-1-1-1-1-1-1-1-1-1-1-0-0-0-0-0-0-0-0-1-1-1-1-3-3-3-3-|

Pre-Chorus (same as before)

Chorus (same as before)

Bridge
F|-------------------------------|
C|-------------------------------|
G|-------------------------------|
C|-1~----------------------------|

F|---------------------------------------------------|
C|---------------------------------------------------|
G|---------------------------------------------------| x 4
C|-5-5-5-5-5-5-5-5-5----1-1~---1-1-1~----------------|


F|---------------------------------------------------|
C|---------------------------------------------------|
G|---------------------------------------------------| x 4
C|-5-5-5-5-5-5-5-5-5----1-1x---1-1-1x----------------|

Final Chorus
F|-----------------------------------------------------------------|
C|-----------------------------------------------------------------|
G|-----------------------------------------------------------------| 
C|---------------------------------1-1-1-1-1-1-1-1-1-1-1-1-1-1-1-1-|

F|-----------------------------------------------------------------|
C|-----------------------------------------------------------------|
G|-----------------------------------------------------------------|
C|-5-5-5-5-5-5-5-5-5-5-5-5-5-5-5-5-1-1-1-1-1-1-1-1-1-1-1-1-1-1-1-1-|

F|-----------------------------------------------------------------|
C|-----------------------------------------------------------------|
G|-3-3-3-3-3-3-3-3-3-3-3-3-3-3-3-3---------------------------------|
C|---------------------------------1-1-1-1-1-1-1-1-1-1-1-1-1-1-1-1-|

F|-----------------------------------------------------------------|
C|-----------------------------------------------------------------|
G|-3-3-3-3-3-3-3-3-3-3-3-3-3-3-3-3---------------------------------|
C|---------------------------------1~------------------------------|

Happy playing!

************************************

| x   Dead note
| g   Grace note
| (n) Ghost note
| h   Hammer-on
| p   Pull-off
| r   Release
| >   Accented note
| t   Tapping
| b   Bend
| br  Bend release
| pb  Pre-bend
| pbr Pre-bend release
| /   Slide up
| \   Slide down
| ~   Vibrato
| s   Slap
| P   Pop
| PM  Palm mute
| TR  Trill
| N   Tremolo

************************************
Suggest correction
Give kudos to tab author, rate the tab!
1 2 3 4 5
comments
print report bad tab
guest
You may want to rate the tab now too:
select rating
Wanna post a correction for this tab? Suggest correction