Oops, an error
Loading. Please wait.

Heres To The Past Tab

version 1
version 1

Whole song

Interactive

51,377 views 9 this week
7 commentsread comments
1 2 3 4 5
x 24
add to favorites
launch autoscroll
font size
0
reset
how to read this tab
guitar tuner
Autoscroll
slow
fast
+/-
esc
set tempo
stop
Help us to improve Ultimate-Guitar.com Take our survey!
×
Author
Artist: A Day To Remember
Song: Here's To The Past
Album: For Those Who Have A Heart
Tuning: Dropped C (low to high) CGCFAD

D|-------------------------------|
A|-------------------------------|
F|-------------------------------|
C|-------------------------------| x4
G|55-55-11-11-111-88-88-33-33-333|
C|55-55-11-11-111-88-88-33-33-333|  

D|------------------------|---------------------|
A|------------------------|---------------------|
F|------------------------|---------------------|
C|------------------------|---------------------|
G|----------------------5~|\\\\\pickslide\\\\\\\|
C|5-555-0-1~-5-555-0-1~-5~|\\\\\\\\\\\\\\\\\\\\\|

D|-----------------------------------------------------------------|
A|-----------------------------------------------------------------|
F|-----------------------------------------------------------------|
C|-----------------------------------------------------------------|
G|55-555-555-555-5-88-888-888-888-8-11-111-111-111-1-33-333-333-333|
C|55-555-555-555-5-88-888-888-888-8-11-111-111-111-1-33-333-333-333|

D|---------------------------|   
A|---------------------------|    
F|---------------------------|    
C|-----------------------xx--| x2 
G|55-588-81010-101313-13-xx1~|    
C|55-588-81010-101313-13-xx1~|    

D|-------------------------------------|-------------------|
A|-------------------------------------|-------------------|
F|-------------------------------------|-------------------|
C|5-55-555-555-555---------------------|5-55-555-555-555---|
G|3-33-333-333-333-1-11-111-111-111-111|3-33-333-333-333-1~|
C|-----------------1-11-111-111-111-111|-----------------1~|

[Strumming Not Shown]
D|----------------|
A|----------------|
F|--------5---5---|
C|5-1-5-1-5-1-5-1~|
G|5-1-5-1-3-1-3-1~|
C|5-1-5-1---1---1~|

D|----------------------------------|
A|----------------------------------|
F|----------------------------------|
C|----------------------------------|
G|5-55-535-5-55-535-5-55-535-5-1-1-3|
C|5-55-535-5-55-535-5-55-535-5-1-1-3|

[Strumming Not Shown]
D|-------|
A|-------|
F|-------|
C|-------|
G|5-8-1-3|
C|5-8-1-3|

"When we leave today..."
D|-----------------------------------------------------------------------------|
A|-----------------------------------------------------------------------------|
F|-----------------------------------------------------------------------------|
C|-----------------------------------------------------------------------------|
G|5-5-5-5-5-5-5-5-8-8-8-8-8-8-8-8-1-1-1-1-1-1-1-0-0-0-0-0-0-0-0-1-1-1-1-3-3-3-3|
C|5-5-5-5-5-5-5-5-8-8-8-8-8-8-8-8-1-1-1-1-1-1-1-0-0-0-0-0-0-0-0-1-1-1-1-3-3-3-3|

D|---------------------------|    
A|---------------------------|    
F|---------------------------|    
C|-----------------------xx--| x2 
G|55-588-81010-101313-13-xx1~|    
C|55-588-81010-101313-13-xx1~|    

D|-------------------------------------|-------------------|
A|-------------------------------------|-------------------|
F|-------------------------------------|-------------------|
C|5-55-555-555-555---------------------|5-55-555-555-555---|
G|3-33-333-333-333-1-11-111-111-111-111|3-33-333-333-333-1~|
C|-----------------1-11-111-111-111-111|-----------------1~|

[Strumming Not Shown]
D|----------------|
A|----------------|
F|--------5---5---|
C|5-1-5-1-5-1-5-1~|
G|5-1-5-1-3-1-3-1~|
C|5-1-5-1---1---1~|

D|---------------------|-------------------|-------------------|-------------------|
A|---------------------|-------------------|-------------------|-------------------|
F|---------------------|-------------------|-------------------|-------------------|
C|1~-------------------|-------------------|-------------------|-------------------|
G|1~-555555555-111~111~|5555555555-111~111~|5555555555-111~111~|5555555555-111~111~|
C|1~-555555555-111~111~|5555555555-111~111~|5555555555-111~111~|5555555555-111~111~|
     ......... ..  ..   .......... ..  ..   .......... ..  ..   .......... ..  ..
D|------------------|
A|------------------|
F|------------------|
C|------------------| x4
G|5555555555-111-111|
C|5555555555-111-111|
  .......... ... ...

[Strumming Not Shown]
D|----------------|
A|----------------|
F|--------5---5---|
C|5-1-5-1-5-1-5-1~|
G|5-1-5-1-3-1-3-1~|
C|5-1-5-1---1---1~|

END.
Suggest correction
comments
print report bad tab
7 comments total. Showing first comments.
0 reply
cjndl620 31 Jul 18, 2008 03:18 AM

this is my favorite song btw and this is basically exactly how i play it except for the first post chorus where u have this

D|--------------------------------------------|
A|--------------------------------------------|
F|--------------------------------------------|
C|--------------------------------------------|
G|5-5555-5-555-5-5555-5-555-5-5555-5-555-1-1-3|
C|5-5555-5-555-5-5555-5-555-5-5555-5-555-1-1-3|


but i play like this

D|----------------------------------|
A|----------------------------------|
F|----------------------------------|
C|----------------------------------|
G|5-55-535-5-55-535-5-55-535-5-1-1-3|
C|5-55-535-5-55-535-5-55-535-5-1-1-3|

its a lot of fast doubles and triples so if you dont understand it send me a message at

www.myspace.com/cj_ljh_4ever

and let me know so i can send you a video

5 STAR TAB

Cameron

+1 reply
60cyclehumm 181 Jan 30, 2009 12:25 PM

Seems pretty good to me.

+1 reply
Factor13x 480 Aug 28, 2009 09:51 PM

great tab man

guest
You may want to rate the tab now too:
select rating
Wanna post a correction for this tab? Suggest correction