Oops, an error
Loading. Please wait.

Holdin It Down For The Underground Tab

version 1
version 1

Whole song

Interactive

15,802 views 3 this week
1 commentread comment
1 2 3 4 5
worth learning
x 6
add to favorites
launch autoscroll
font size
0
reset
how to read this tab
guitar tuner
Autoscroll
slow
fast
+/-
esc
set tempo
stop
Help us to improve Ultimate-Guitar.com Take our survey!
×
-------------------------------------------------------------------------------
                             HOLDIN' IT DOWN FOR THE UNDERGROUND - A Day To Remember
-------------------------------------------------------------------------------
Tabbed by: Brandon McConville
Email: BrandonMcConville@Hotmail.com


This is my version on "Holdin' It Down For The Underground".
I know, so you don't have to tell me in comments, that this is not %100.
This was my first by ear tab so don't get all critical like "OMG dude, this part isn't right"
I know that, I have a headache and I don't wanna try to figure the exact way out.
When playing along to the song, however, it sounds really nice.
This is just an easier way to play.. maybe if your a beginner like me
Don't give me shit ratings, please.. I meant for the song to sound like this..

AND YES, I KNOW I FORGOT THE INTRO, lol

Ps. the tuning is DROP C, even though the bars aren't labeled so,
anything else, just comment, or listen to the song, enjoy!!

Tuning: Drop C

e|---------------------------------------------------------------------------|
B----------------------------------------------------------------------------|
G|---------------------------------------------------------------------------|
D|--------------------------------------------------10|----5|----7|----------|
A|---88888888----55555555----0000000000000000|-------8|----3|----5|----------|
E|---88888888----55555555----0000000000000000| x2----8|x8--3|x4--5|x2--------|

e|---------------------------------------------------------------------------|
B|---------------------------------------------------------------------------|
G|----------------------------------------------------------| then this |----|
D||this whole thing 3 times|---------|this once|-------------7|------10|-----|
A|---0-0-0-0------000-000--------------0-0-0-0---------------5|------8|------|
E|---0-0-0-0------000-000--------------0-0-0-0---------------5|x3----8|x3----|

e|---------------------------------------------------------------------------|
B|---------------------------------------------------------------------------|
G|---------------------------------------------------------------------------|
D|-----------------------------------------------------------7|------10|-----|
A|---0-0-0-0-0-0-0-0-0-0-0-0-000-000-0-0-0-0-0-0-0-0---------5|-------8|-----|
E|---0-0-0-0-0-0-0-0-0-0-0-0-000-000-0-0-0-0-0-0-0-0---------5|x3-----8|x3---|

e|---------------------------------------------------------------------------|
B|---------------------------------------------------------------------------|
G|---------------------------------------------------------------------------|
D|-----------------------------------------------------------7|--------------|
A|---0-0-0-0-0-0-0-0-0-0-0-0-000-000-0-0-0-0-0-0-0-0---------5|--------------|
E|---0-0-0-0-0-0-0-0-0-0-0-0-000-000-0-0-0-0-0-0-0-0---------5|x4------------|

e|---------------------------------------------------------------------------|
B|--------------------------------|play this whole thing once|---|then this|-|
G||play this whole thing 2 times|--------------------------------------------|
D|------------------------------------10|---7|----5|----3|--------10|---7|---|
A|--8|------5|------0|------3|--------8|----5|----3|----0|--------8|----7|---|
E|--8|x8----5|x8----0|x8----3|x8------8|x8--5|x8--3|x8--0|x8------8|x8--5|x8-|

e|---------------------------------------------------------------------------|
B|--------------------------play this whole bar twice------------------------|
G|---------------------------------------------------------------------------|
D|-----------------------------------------------------------7|------10|-----|
A|---0-0-0-0-0-0-0-0-0-0-0-0-000-000-0-0-0-0-0-0-0-0---------5|-------8|-----|
E|---0-0-0-0-0-0-0-0-0-0-0-0-000-000-0-0-0-0-0-0-0-0---------5|x3-----8|x3---|

e|---------------------------------------------------------------------------|
B|---------------------------------------------------------------------------|
G|----------------------------------------------------------| then this |----|
D||this whole thing 3 times|---------|this once|------------------7|---------|
A|---0-0-0-0------000-000--------------0-0-0-0--------------------5|---------|
E|---0-0-0-0------000-000--------------0-0-0-0--------------------5|x4-------|

e|---------------------------------------------------------------------------|
B|--------------------------------|play this whole thing once|---|then this|-|
G||play this whole thing 2 times|--------------------------------------------|
D|------------------------------------10|---7|----5|----3|--------10|---7|---|
A|--8|------5|------0|------3|--------8|----5|----3|----0|--------8|----7|---|
E|--8|x8----5|x8----0|x8----3|x8------8|x8--5|x8--3|x8--0|x8------8|x8--5|x8-|

e|---------------------------------------------------------------------------|
B|---------------------------------------------------------------------------|
G|---------------------------------------------------------------------------|
D|-----------------|this part x2|---------------------|this part x2|---------|
A|-0------------000-0-0-3-2-0-0----55555555--11111111--0-0-3-2-0-0-----------|
E|-0------------000-0-0-3-2-0-0----55555555--11111111--0-0-3-2-0-0-----------|

e|---------------------------------------------------------------------------|
B|------------------------play this whole bar 2 times------------------------|
G|---------------------------------------------------------------------------|
D|---------------------------------------------------------------------------|
A|---0-0-0--0-0---0-0-0-0--000000000--00--0--0000-0000-000-000---------------|
E|---0-0-0--0-0---0-0-0-0--000000000--00--0--0000-0000-000-000---------------|

e|---------------------------------------------------------------------------|
B|---------------------------------------------------------------------------|
G|---------------------------------------------------------------------------|
D|-------------------------------------------------------------7|------------|
A|---0-0-0--0-0---0-0-0-0--000000000--00--0--0000--------------5|------------|
E|---0-0-0--0-0---0-0-0-0--000000000--00--0--0000--------------5|x4----------|

e|---------------------------------------------------------------------------|
B|--------------------------------|play this whole thing once|---|then this|-|
G||play this whole thing 2 times|--------------------------------------------|
D|------------------------------------10|---7|----5|----3|--------10|---7|---|
A|--8|------5|------0|------3|--------8|----5|----3|----0|--------8|----7|---|
E|--8|x8----5|x8----0|x8----3|x8------8|x8--5|x8--3|x8--0|x8------8|x8--5|x8-|

e|---------------------------------------------------------------------------|
B|---------------------------------------------------------------------------|
G|---------------------------------------------------------------------------|
D|-----------------------------------------------------------7|--------------|
A|---0-0-0-0-0-0-0-0-0-0-0-0-000-000-0-0-0-0-0-0-0-0---------5|--------------|
E|---0-0-0-0-0-0-0-0-0-0-0-0-000-000-0-0-0-0-0-0-0-0---------5|x4------------|




| /  slide up
| \  slide down
| h  hammer-on
| p  pull-off
| ~  vibrato
| +  harmonic
| x  Mute note
==============================================================================
Suggest correction
comments
print report bad tab
1 comment total.
0 reply
adtr1892 10 wrote on February 24 2009, 02:17 pm

Hey this sounds really nice,
good job!

guest
You may want to rate the tab now too:
select rating
Wanna post a correction for this tab? Suggest correction