Oops, an error
Loading. Please wait.

Homesick Tab

version 1
version 1

Acoustic

Whole song

Interactive

23,352 views 63 this week
4 commentsread comments
1 2 3 4 5
x 4
add to favorites
launch autoscroll
font size
0
reset
how to read this tab
guitar tuner
Autoscroll
slow
fast
+/-
esc
set tempo
stop
Help us to improve Ultimate-Guitar.com Take our survey!
×
Difficulty
Tuning
novice
B F# B E G# C#
Everything around me seems...
C#|----------------------------------------------------------------------------|
G#|----------------------------------------------------------------------------|
E |--9-----7------5-------5-------7------8------9-----x----9-----x-------------|
B |---------------3---------------5------6-------------------------------------|
F#|--7-----5------3-------3-------5------6------7-----x----7-----x-------------|
B |---------------3---------------5------6-------------------------------------|
  (x13)   (x6)     (x6)     (x13)       (x6)     (x8)     (x3)    (x3)   (x3)   (x3)

  continue to live a life...
C#|----------------------------------------------------------------------------|
G#|----------------------------------------------------------------------------|
E |----12-----5------12-------5--------12------13------------------------------|
B |----------------------------------------------------------------------------|
F#|----10-----3------10-------3--------10------11------------------------------|
B |----------------------------------------------------------------------------|
    (x8)     (x8)      (x8)      (x8)        (x8)      (x8)      

  Right here, right now
C#|----------------------------------------------------------------------------|
G#|----------------------------------------------------------------------------|
E |-----5------4-----5---------12---9---10---7---5------4----------------------|
B |----------------------------------------------------------------------------|
F#|-----3------2-----3---------10---7---8----5---3------2----------------------|
B |----------------------------------------------------------------------------|
     (x6)      (x8)    (x6)                         (x6)      (x8)

  (the beginning of..) the end
C#|----------------------------------------------------------------------------|
G#|----------------------------------------------------------------------------|
E |-----------8---6---5---------5---5h6p5--------------------------------------|
B |-----5-5---------------7-7--------------------------------------------------|
F#|----------------------------------------------------------------------------|
B |----------------------------------------------------------------------------|
      * *               * *

  And I won't sing one...
C#|----------------------------------------------------------------------------|
G#|----------------------------------------------------------------------------|
E |-----5------4-----5---------12---9---10---7-----5-------7-------------------|
B |------------------------------------------------3-------5-------------------|
F#|-----3------2-----3---------10---7---8----5-----3-------5-------------------|
B |------------------------------------------------3-------5-------------------|
     (x6)      (x8)    (x6)                                        

  Hey mom, I wrote... (x2)                                                        go
C#|------------------------------------------------------|              |------------|
G#|------------------------------------------------------|              |------------|
E |-----5----5----5------5---5------5---7----5-----------|              |-----8------|
B |-----2----0----3------0---2---------------------------|              |------------| (x2)
F#|-----3----3----3------3---3------3---5----3-----------|              |-----6------|
B |------------------------------------------------------|              |------------|
      (x3) (x4)/6   (x3)     (x2)  (x2)    (x5)  (x2)   (x8)                        Play at the 2nd End:

  Everything about me seemed...
C#|------------------------------------------------------------------------------|
G#|------------------------------------------------------------------------------|
E |--9-----7------5-------5-------7------8------9-----x----9-----x---------------|
B |---------------3---------------5------6---------------------------------------|
F#|--7-----5------3-------3-------5------6------7-----x----7-----x---------------|
B |---------------3---------------5------6---------------------------------------|
   (x13)   (x6)     (x8)     (x13)     (x6)      (x8)     (x3)    (x3)   (x3)    (x3)

  Never felt so alone...
C#|------------------------------------------------------------------------------|
G#|------------------------------------------------------------------------------|
E |----12-----5------12-------5--------12------13--------------------------------|
B |------------------------------------------------------------------------------|
F#|----10-----3------10-------3--------10-------11-------------------------------|
B |------------------------------------------------------------------------------|
     (x8)    (x8)      (x8)       (x8)       (x8)       (x8)      

  Right here, right now...
C#|-------------------------------------------------------------------------------|
G#|-------------------------------------------------------------------------------|
E |-----5------4-----5---------12---9---10---7---5------4-------------------------|
B |-------------------------------------------------------------------------------|
F#|-----3------2-----3---------10---7---8----5---3------2-------------------------|
B |-------------------------------------------------------------------------------|
      (x6)    (x8)    (x6)                           (x6)     (x8)

  (the beginning of..) the end
C#|----------------------------------------------------------------------------|
G#|----------------------------------------------------------------------------|
E |-----------8---6---5---------5---5h6p5--------------------------------------|
B |-----5-5---------------7-7--------------------------------------------------|
F#|----------------------------------------------------------------------------|
B |----------------------------------------------------------------------------|
      * *               * *

  And I won't sing one single thing...
C#|-------------------------------------------------------------------------------|
G#|-------------------------------------------------------------------------------|
E |-----5------4-----5---------12---9---10---7-----5----7-------------------------|
B |------------------------------------------------3----5-------------------------|
F#|-----3------2-----3---------10---7---8----5-----3----5-------------------------|
B |------------------------------------------------3----5-------------------------|
      (x6)    (x8)    (x6)         

  Hey mom...                                                                               
C#|------------------------------------------------------|                
G#|------------------------------------------------------|   (x2)      
E |-----5----5----5------5---5------5---7----5-----------|                
B |-----2----0----3------0---2---------------------------|                 
F#|-----3----3----3------3---3------3---5----3-----------|                 
B |------------------------------------------------------|                
      (x3)  (x4)/6  (x3)     (x2)  (x2)    (x5)  (x2)   (x8)                     

  so why's this...                               
C#|----------------------------------------------------------------------------------------|-----|-----|
G#|----------------------------------------------------------------------------------------|-----|-----| (x2)
E |-----12--12-------12--12--12-------12--12--12-----12--12--12--9--10---9--7--9--5----7---|--5--|--5--|
B |----------------------------------------------------------------------------------------|-----|--3--|
F#|-----10--10-------10--10--10-------10--10--10-----10--10--10--7---8---7--5--7--3----5---|--3--|--3--|
B |----------------------------------------------------------------------------------------|-----|--3--|
                                                                                (x4)    (x2)    (x8)    (x6)


  I'm holding on...                                we're moving forward...
C#|-----0--------------0-------------0-----------------------------------|
G#|--------1--------------1-------------1--------------------------------|
E |-----------0-------------0--------------2------------5------4---------|
B |--3---------------3----------------------------------5------5---------|
F#|-------------------------------0---------------------5------5---------|
B |----------------------------------------------------------------------|
                                                      8x     5x

[Guitar solo], 
C#|-----------------------------------------------------------------|    |----------------------------| (x2)
G#|-----------------------------------------------------------------|    |----------------------------|
E |-------5----------12--10--4--5-----------5---------12--10--9-----|    |--------5~------------------|
B |---3----------3----------------------3---------5-----------------|    |----------------------------|
F#|---3---3------3---10--8---2--3-------3---3-----5---10--8---7-----|    |--------3~------------------|
B |---3----------3----------------------3---------5-----------------|    |----------------------------|

C#|----------------|
G#|----------------|
E |---5/12----12---|
B |----------------|
F#|---3/10----10---|
B |----------------|
           (x18)

  Hey mom, I wrote...
C#|-------------------------------------------------|                     
G#|-------------------------------------------------|                     
E |-----5----5----5------5---5------5---7----5------|       (x2)               
B |-----2----0----3------0---2----------------------|                     
F#|-----3----3----3------3---3------3---5----3------|                     
B |-------------------------------------------------|                     
     (x3)  (x4)/6   (x3)     (x2)  (x2)     (x5)  (x2)   (x8)                     


  Nervous (You make me so, you make me so...)
C#|----------------------------------------------------------------------------------------|-----|-----|
G#|----------------------------------------------------------------------------------------|-----|-----| (x2)
E |-----12--12-------12--12--12-------12--12--12-----12--12--12--9--10---9--7--9--5----7---|--5--|--5--|
B |----------------------------------------------------------------------------------------|-----|--3--|
F#|-----10--10-------10--10--10-------10--10--10-----10--10--10--7---8---7--5--7--3----5---|--3--|--3--|
B |----------------------------------------------------------------------------------------|-----|--3--|
                                                                                (x4)   (x2)     (x8)


************************************

| x  Dead note
| h  Hammer-on
| p  Pull-off
| ~  Vibrato
| /  Slide up

************************************
Suggest correction
comments
print report bad tab
4 comments total. Showing first comments.
0 reply
anarchy = life 10 Nov 09, 2012 10:50 PM

(the beginning of..) the end
|---------------------------------------------------------|
|---------------------------------------------------------|
|----12---10--9------y-9h10p9-----------------==----------|
|------------------------------10-------------===---------|
|--------------------------------=------------------------|
|---------------------------------------------------------|

I think this sounds better.

0 reply
mcdevitt51 10 Mar 23, 2013 09:35 PM

This should be drop C, not B

0 reply
Draco7 10 Feb 24, 2014 11:05 AM

Where is the other guitar part?

guest
You may want to rate the tab now too:
select rating
Wanna post a correction for this tab? Suggest correction