Oops, an error
Loading. Please wait.

Homesick Tab

version 1
version 1

Whole song

Interactive

109,685 views 57 this week
9 commentsread comments
1 2 3 4 5
x 23
add to favorites
launch autoscroll
font size
0
reset
how to read this tab
guitar tuner
Autoscroll
slow
fast
+/-
esc
set tempo
stop
Help us to improve Ultimate-Guitar.com Take our survey!
×
Author
Tuning
C G C F A D
Tabbed by: Aaron West
Email: Wacky_Westy@hotmail.com

Drop C Tuning.
Rhythm Guitar.

(Listen carefully to the song to find out the strumming patterns)

[Verse 1]
(0:00)
D|-------------------------------------------------------------------|
A|-------------------------------------------------------------------|
F|------------------------------------555555555555-------------------|
C|-Pickslide-777777777777-000000-333333-555555555555-555555-66666666-|
G|-Pickslide-777777777777-000000-333333-333333333333-555555-66666666-|
C|-Pickslide-777777777777-000000-333333--------------555555-66666666-|

D|------------------------------------------------------------|
A|------------------------------------------------------------|
F|-------------------------------555555555555-----------------|
C|-777-xxx-777-xxx-000000-333333-555555555555-555555-66666666-|
G|-777-xxx-777-xxx-000000-333333-333333333333-555555-66666666-|
C|-777-xxx-777-xxx-000000-333333--------------555555-66666666-|

[Pre-Chorus 1]
(0:20)
D|----------------------------------------------------|
A|----------------------------------------------------|
F|----------------------------------------------------|
C|-33333/55555/77777/10~-33333/55555/7777777777777777-|
G|-33333/55555/77777/10~-33333/55555/7777777777777777-|
C|-33333/55555/77777/10~-33333/55555/7777777777777777-|
/|-----------------------------------................-|

D|------------------------------------|
A|------------------------------------|
F|------------------------------------|
C|-33333/55555/77777/10~----3~----/5~-|
G|-33333/55555/77777/10~----3~----/5~-|
C|-33333/55555/77777/10~----3~----/5~-|

[Chorus 1]
(0:39)                                        (0:56)
D|------------------------------------|      D|----|
A|------------------------------------|      A|----|
F|-5555555555555555-------------------|      F|----|
C|-5555555555555555-77777777-33333333-| (x2) C|-6~-|
G|-3333333333333333-77777777-33333333-|      G|-6~-|
C|------------------77777777-33333333-|      C|-6~-|

[Verse 2]
(0:58)
D|-------------------------------------------------------------------|
A|-------------------------------------------------------------------|
F|---------------------------------------555555555555----------------|
C|-Pickslide-777777777777-000000-333333-555555555555-555555-66666666-|
G|-Pickslide-777777777777-000000-333333-333333333333-555555-66666666-|
C|-Pickslide-777777777777-000000-333333--------------555555-66666666-|

D|------------------------------------------------------------|
A|------------------------------------------------------------|
F|-------------------------------555555555555-----------------|
C|-777-xxx-777-xxx-000000-333333-555555555555-555555-66666666-|
G|-777-xxx-777-xxx-000000-333333-333333333333-555555-66666666-|
C|-777-xxx-777-xxx-000000-333333--------------555555-66666666-|

[Pre-Chorus 2]
(1:17)
D|----------------------------------------------------|
A|----------------------------------------------------|
F|----------------------------------------------------|
C|-33333/55555/77777/10~-33333/55555/7777777777777777-|
G|-33333/55555/77777/10~-33333/55555/7777777777777777-|
C|-33333/55555/77777/10~-33333/55555/7777777777777777-|
/|-----------------------------------................-|

D|------------------------------------|
A|------------------------------------|
F|------------------------------------|
C|-33333/55555/77777/10~----3~----/5~-|
G|-33333/55555/77777/10~----3~----/5~-|
C|-33333/55555/77777/10~----3~----/5~-|

[Chorus 2]
(1:36)
D|------------------------------------|
A|------------------------------------|
F|-5555555555555555-------------------|
C|-5555555555555555-77777777-33333333-| (x2)
G|-3333333333333333-77777777-33333333-|
C|------------------77777777-33333333-|

[Mini Breakdown]
(1:54)
D|-------------------------------------------|
A|-------------------------------------------|
F|-55-555-555-555-55555555-------------------|
C|-55-555-555-555-55555555-77777777-33333333-| (x2)
G|-33-333-333-333-33333333-77777777-33333333-|
C|-------------------------77777777-33333333-|

[Bridge]
(2:11)
D|-----------------------------------------------------------------|
A|-----------------------------------------------------------------|
F|-5~--------------5~----------------------------------------------|
C|-5~--------------5~---------------7~---------------5555555555555-|
G|-3~--------------3~---------------7~---------------5555555555555-|
C|----------------------------------7~---------------5555555555555-|
/|---------------------------------------------------..........----|
                                               (Slowly release palm)
[Breakdown]
(2:29)
D|---------------------------------------------------------|
A|---------------------------------------------------------|
F|-------5555555-------5555555-------5555555-------5555555-|
C|-33333-xxxxxxx-33333-xxxxxxx-77777-xxxxxxx-55555-xxxxxxx-| (x2)
G|-33333-3333333-33333-3333333-77777-3333333-55555-3333333-|
C|-33333---------33333---------77777---------55555---------|

(3:04)
D|--------------------------------|
A|--------------------------------|
F|---------------5555555555555555-|
C|-3~------------5555555555555555-|
G|-3~------------3333333333333333-|
C|-3~-----------------------------|
/|---------------.............----|
              (Slowly release palm)
                    
[Chorus 3]
(3:12)
D|------------------------------------|
A|------------------------------------|
F|-5555555555555555-------------------|
C|-5555555555555555-77777777-33333333-| (x2)
G|-3333333333333333-77777777-33333333-|
C|------------------77777777-33333333-|

[Mini Breakdown 2]
(3:30)
D|-------------------------------------------|
A|-------------------------------------------|
F|-55-555-555-555-55555555-------------------|
C|-55-555-555-555-55555555-77777777-33333333-|
G|-33-333-333-333-33333333-77777777-33333333-|
C|-------------------------77777777-33333333-|

D|-------------------------------------------|
A|-------------------------------------------|
F|-55-555-555-555-55555555-------------------|
C|-55-555-555-555-55555555-77777777-3~-------|
G|-33-333-333-333-33333333-77777777-3~-------|
C|-------------------------77777777-3~-------|

(Just thought id put this in here!)

[Lead Breakdown]
(2:29)
 (the only part I could work out for the lead) 
D|---------------------------------------------|
A|---------------------------------------------|
F|-------5555555-------12121212-10101010-99-10-|
C|-33333-xxxxxxx-33333-x-x-x-x--x-x-x-x—-xx-x--|
G|-33333-3333333-33333-10101010—8-8-8-8--77-8--|
C|-33333---------33333-------------------------|

D|---------------------------------------------|
A|---------------------------------------------|
F|-------5555555-------12121212-10101010-99-10-|
C|-77777-xxxxxxx-55555-x-x-x-x--x-x-x-x—-xx-x--|
G|-77777-3333333-55555-10101010—8-8-8-8--77-8--|
C|-77777---------55555-------------------------|


************************************

| x  Dead note
| /  Slide up
| ~  Vibrato

************************************
Suggest correction
comments
print report bad tab
9 comments total. Showing first comments.
0 reply
Oh-dear-lord 61 Jan 20, 2009 04:29 PM

Love this band!! Amazing tab!! Keep it up!!

0 reply
JessicaGonzo 211 Jan 22, 2009 09:47 PM

great tab. you should tab the downfall of us all

0 reply
mlceltic 98 Jan 25, 2009 10:53 AM

again, great tab mate.

guest
You may want to rate the tab now too:
select rating
Wanna post a correction for this tab? Suggest correction