Oops, an error
Loading. Please wait.

If I Leave Bass Tab

version 1
version 1

Whole song

Interactive

3,958 views 3 this week
no commentswrite comment
1 2 3 4 5
accurate
x 3
add to favorites
launch autoscroll
font size
0
reset
guitar tuner
Autoscroll
slow
fast
+/-
esc
set tempo
stop
Help us to improve Ultimate-Guitar.com Take our survey!
×
Author
Difficulty
Tuning
novice
D A D G B E
Intro: 

G|---------------------------------------------------------------|
D|---------------------------------------------------------------|
A|---------------------------------------------------------------| x4
D|-4-4-4--0-0-0--7-7-7---2-2-2-2-2-2-2-3-------------------------|

G|---------------------------------------------------------------|
D|---------------------------------------------------------------|
A|-------------------------------7-------------------------------| x1
D|-0-0-0-0-0-0-0-0-0-0-0-0---4h7---------------------------------|

Verse: x2

G|---------------------------------------------------------------|
D|---------------------------------------------------------------|
A|---------------------------7----------------------------7------|
D|-0--0-0-0--0-0--0-0-0--4h7----0--0-0-0--0-0--0-0-0--4h7--------|

G|---------------------------------------------------------------|
D|---------------------------------------------------------------|
A|---------------------------7----------------------------7------|
D|-4--4-4-4--4-4--4-4-4--4h7----2--2-2-2--2-2--2-2-2--4h7--------|

Pre-Chorus: x2

G|---------------------------------------------------------------|
D|---------------------------------------------------------------|
A|---------------------------------------------------------------|
D|-4-4-4-2-2-2-0-0-0-0-0-0-0-0-0-0-------------------------------|

Chorus

G|---------------------------------------------------------------|
D|---------------------------------------------------------------|
A|---------------------------------------------------------------|
D|-7777777777777777-2222222222222222-44444444-22222222-00000000--|

G|---------------------------------------------------------------|
D|---------------------------------------------------------------|
A|---------------------------------------------------------------|
D|-2222-0000-----------------------------------------------------|

Verse: x2

Pre-Chorus: x2

Chorus: until the song ends
Suggest correction
Give kudos to tab author, rate the tab!
1 2 3 4 5
comments
print report bad tab
guest
You may want to rate the tab now too:
select rating
Wanna post a correction for this tab? Suggest correction