Oops, an error
Loading. Please wait.
We have an official If It Means A Lot To You tab made by UG professional guitarists. Check out the tab »
×

If It Means A Lot To You Chords

version 1
version 1

Whole song

Interactive

Video

2,489,150 views 774 this week
97 commentsread comments
1 2 3 4 5
x 609
add to favorites
launch autoscroll
font size
0
reset
transpose
0
reset
simplify chords
display chords
guitar tuner
Autoscroll
slow
fast
+/-
esc
set tempo
stop
Capo
3rd fret
Strumming
There is no strumming pattern for this song yet. and get +5 IQ
[INTRO:]

Guitar 1

C/G G Gsus2
C/G G Gsus2

Guitar 2
e|-----------------------------3--3----------------------------------|
B|-----------------------------3--3----------------------------------|
G|--2h4--2p0-----2h4--2p0------0--0--2h4--2p0------------------------|
D|------------2------------2-------------------2---4-5-5-4-4--5-4----|
A|-------------------------------------------------------------------|
E|-------------------------------------------------------------------|

Guitar 3 (second time around)
e|----------------------------3--3-----------------------------------|
B|--1h3--3p1-----1h3--3p1-----3--3--1h3--3p1-------------------------|
G|------------0------------0--0--0------------0--2-4-4-2-2-4-4-2-2-0-|
D|-------------------------------------------------------------------|
A|-------------------------------------------------------------------|
E|-------------------------------------------------------------------|


[VERSE 1:]

 Em/D       G
And hey darling
  Gsus2            Em/D
I hope you're good tonight
       G                   Gsus2
And I know you don't feel right when I'm leaving
Em/D
Yeah I want it but no I don't need it
G                Gsus2           Em/D
Tell me something sweet to get me by
    C/G                 G
'Cuz I can't come back home till they're singing


C/G      Gsus2     Em/D
La, la la la, la la la
G
'Til everyone is singing


[CHORUS:]

G                   Gsus2
If you can wait till I get home
       Em/D
Then I swear to you
                      C/G
That we can make this last

(La la la)
G                   Gsus2
If you can wait till I get home
       Em/D
Then I swear come tomorrow
                       C/G
This will all be in the past
        G
Well it might before the best


[Bridge]

Guitar 1

C/G G Gsus2
C/G G Gsus2

Guitar 2
e|-----------------------------3--3----------------------------------|
B|-----------------------------3--3----------------------------------|
G|--2h4--2p0-----2h4--2p0------0--0--2h4--2p0------------------------|
D|------------2------------2-------------------2---4-5-5-4-4--5-4----|
A|-------------------------------------------------------------------|
E|-------------------------------------------------------------------|

Guitar 3 (second time around)
e|----------------------------3--3-----------------------------------|
B|--1h3--3p1-----1h3--3p1-----3--3--1h3--3p1-------------------------|
G|------------0------------0--0--0------------0--2-4-4-2-2-4-4-2-2-0-|
D|-------------------------------------------------------------------|
A|-------------------------------------------------------------------|
E|-------------------------------------------------------------------|


[VERSE 2:]

Em/D        G
And hey sweetie
Gsus2                 Em/D
Well I need you here tonight
      G                   Gsus2
And I know that you don't want to be leaving me
Em/D
Yeah you want it but I can't help it
G               Gsus2                  Em/D
I just feel complete when you're by my side
       C/G                 G
But I know you can't come home 'til they're singing


C/G      Gsus2     Em/D
La, la la la, la la la
G
'Til everyone is singing
C/G      Gsus2      G
La, la la la, la la la

[CHORUS]

G                   Gsus2
If you can wait till I get home
       Em/D
Then I swear to you
                      C/G
That we can make this last

(La la la)
G                   Gsus2
If you can wait till I get home
       Em/D
Then I swear come tomorrow
                       C/G
This will all be in the past
        G                c/G
Well it might before the best


[BRIDGE:]

                   C/G            G
You know you can't give me what I need
                        Em/D
And even tho it means so much to me
                      Gsus2
I can't wait through everything

Is this really happening


C/G                           G
I swear I'll never be happy again
                                   Em/D
And don't you dare say that we can just be friends
                              Gsus2
I'm not just some boy you can sway

We know what will happen eventually


[OUTRO:]

C/G      Gsus2     Em/D
La, la la la, la la la
        G
Now everybody's singing
C/G      Gsus2     Em/D
La, la la la, la la la
        G
Now everybody's singing
C/G      Gsus2     Em/D
La, la la la, la la la
        G
If you can wait ‘til I get home
(Now everybody's singing)
C/G      Gsus2     Em/D
Then I swear to you that we can make this last


C/G      Gsus2     Em/D
La, la la la, la la la
        G
Now everybody's singing
        G
If you can wait ‘til I get home

C/G      Gsus2     Em/D
La, la la la, la la la
        G
Now everybody's singing
C/G      Gsus2     Em/D
Then I swear to you that we can make this last


C/G      Gsus2     Em/D
La, la la la, la la la
        G
Now everybody's singing

***********************

h   Hammer on
p   Pull off

***********************
Suggest correction
comments
print report bad tab
97 comments total. Showing first comments.
+21 reply
JessicaGonzo 221 Jan 22, 2009 02:34 PM

i love you for making this tab. nice job.

+10 reply
rockstarscottie 21 Jan 22, 2009 08:16 PM

haha thanks :D

+16 reply
got_trivium? 10 Jan 28, 2009 02:16 PM

very well done. sounds perfect to me.

guest
You may want to rate the tab now too:
select rating
Wanna post a correction for this tab? Suggest correction