Oops, an error
Loading. Please wait.

If It Means A Lot To You Tab

version 1
version 1

Intro

Whole song

Interactive

43,423 views 39 this week
2 commentsread comments
1 2 3 4 5
x 5
add to favorites
launch autoscroll
font size
0
reset
how to read this tab
guitar tuner
Autoscroll
slow
fast
+/-
esc
set tempo
stop
Help us to improve Ultimate-Guitar.com Take our survey!
×
Author
Difficulty
novice
the intro of this song doesn't sound right no matter where i go so i just figured it out myself :)

                             \//\
-------------------------------------------------------------------|
---5/7/5p3p0--5/7/5p3p0---------------5/7/5p3p0--2h3-3-2-2-2-3-2-2-|
----------------------------12-12----------------------------------|
----------------------------12-12----------------------------------|
----------------------------10-10----------------------------------|
-------------------------------------------------------------------|

tell me what you think :) and /\this cord is just a G in a higher octave so it's
still in the same key as the song :)

KEY: (/)-slide
     (p)-pull off
     (h)-hammer on
Suggest correction
comments
print report bad tab
2 comments total.
0 reply
mexico1love 75 Aug 27, 2012 09:08 PM

are you playing this in standard?

0 reply
paulinamexicore 10 Jan 14, 2014 04:15 PM

try
-----------------
---0-2-0---------
---------2-------
-----------4-----
-----------------
----------------- X2

-----------------------------------------------------
----------0-2-0--------------------------------------
---2-2----------2-----1-2-2-1-1-1-2-1-1-1------------
------------------4----------------------------------
-----------------------------------------------------
-----------------------------------------------------
[Repeat whole tab] and then add e2 hope this helps!

guest
You may want to rate the tab now too:
select rating
Wanna post a correction for this tab? Suggest correction