Oops, an error
Loading. Please wait.

If It Means A Lot To You Tab

version 1
version 1

Whole song

Interactive

Video

120,051 views 921 this week
3 commentsread comments
1 2 3 4 5
accurate
x 10
add to favorites
launch autoscroll
font size
0
reset
how to read this tab
guitar tuner
Autoscroll
slow
fast
+/-
esc
set tempo
stop
Help us to improve Ultimate-Guitar.com Take our survey!
×
Capo
3rd fret
Okay so I couldn't find the tabs for this anywhere so i just tabbed it using the
chords. CAPO: 3RD FRET

CHORDS:
    c/G    G   Gsus2  EM/D
e-|--3--|--3--|--3--|--3--|
B-|--3--|--3--|--3--|--3--|
G-|--0--|--0--|--2--|--0--|
D-|--2--|--0--|--0--|--2--|
A-|--3--|--2--|--0--|--2--|
E-|--X--|--3--|--2--|--0--|

INTRO:

e--3--3--3--|
B--3--3--3--|
G--0--0--2--|X2
D--2--0--0--|
A--3--2--0--|
E--x--3--2--|

VERSE 1:
and hey darling, i hope you're good tonight

e--3-------3---------------3-----------3--------|
B--3-------3---------------3-----------3--------|
G--0-------0---------------2-----------0--------|
D--2-------0---------------0-----------2--------|
A--2-------2---------------0-----------2--------|
E--0-------3---------------2-----------0--------|

and i know you don't feel right when i'm leaving

e-------3------------------3----------------------|
B-------3------------------3----------------------|
G-------0------------------2----------------------|
D-------0------------------0----------------------|
A-------2------------------0----------------------|
E-------3------------------2----------------------|

yeah, i want it but no i don't need it,

e---------------3----------------------------------|
B---------------3----------------------------------|
G---------------0----------------------------------|
D---------------2----------------------------------|
A---------------2----------------------------------|
E---------------0----------------------------------|

tell me something sweet to get me by

e--3-------3-------------3---------------------------|
B--3-------3-------------3---------------------------|
G--0-------2-------------0---------------------------|
D--0-------0-------------2---------------------------|
A--2-------0-------------2---------------------------|
E--3-------2-------------0---------------------------|

cause i can't come back home till' they're singing

e--3----------------------3-------------------------|
B--3----------------------3-------------------------|
G--0----------------------0-------------------------|
D--2----------------------0-------------------------|
A--3----------------------2-------------------------|
E--X----------------------3-------------------------|

la, la la la, la la la, till everyone is singing

e--3-----3--------3--------------3--------------------|
B--3-----3--------3--------------3--------------------|
G--0-----2--------0--------------0--------------------|
D--2-----0--------2--------------0--------------------|
A--3-----0--------2--------------2--------------------|
E--X-----2--------0--------------3--------------------|

CHORUS
if you can wait till' i get home

e--3-----------------------3----------------------|
B--3-----------------------3----------------------|
G--0-----------------------2----------------------|
D--0-----------------------0----------------------|
A--2-----------------------0----------------------|
E--3-----------------------2----------------------|

then i swear to you, that we can make this last

e--------3------------------3-----------------------|
B--------3------------------3-----------------------|
G--------0------------------0-----------------------|
D--------0------------------2-----------------------|
A--------2------------------3-----------------------|
E--------2------------------X-----------------------|

if you can wait till' i get home

e--3-----------------------3----------------------|
B--3-----------------------3----------------------|
G--0-----------------------2----------------------|
D--0-----------------------0----------------------|
A--2-----------------------0----------------------|
E--3-----------------------2----------------------|

then i swear come tomorrow this will all be in our past

e--3--------------------------------3---------------|
B--3--------------------------------3---------------|
G--0--------------------------------0---------------|
D--2--------------------------------2---------------|
A--2--------------------------------3---------------|
E--0--------------------------------X---------------|

it might be for the best

e----------3---------------------------------------|
B----------3---------------------------------------|
G----------0---------------------------------------|
D----------0---------------------------------------|
A----------2---------------------------------------|
E----------3---------------------------------------|

INTRO:

e--3--3--3--|
B--3--3--3--|
G--0--0--2--|X2
D--2--0--0--|
A--3--2--0--|
E--x--3--2--|

VERSE 2:

and hey sweetie, well i need you here tonight

e--3-------3---------------3-----------3--------|
B--3-------3---------------3-----------3--------|
G--0-------0---------------2-----------0--------|
D--2-------0---------------0-----------2--------|
A--2-------2---------------0-----------2--------|
E--0-------3---------------2-----------0--------|

and i know that you don't want to be leaving

e-------3------------------3----------------------|
B-------3------------------3----------------------|
G-------0------------------2----------------------|
D-------0------------------0----------------------|
A-------2------------------0----------------------|
E-------3------------------2----------------------|

yeah, you want it but i can't help it

e---------------3----------------------------------|
B---------------3----------------------------------|
G---------------0----------------------------------|
D---------------2----------------------------------|
A---------------2----------------------------------|
E---------------0----------------------------------|

i just feel complete when you're by my side

e--3-------3-------------3---------------------------|
B--3-------3-------------3---------------------------|
G--0-------2-------------0---------------------------|
D--0-------0-------------2---------------------------|
A--2-------0-------------2---------------------------|
E--3-------2-------------0---------------------------|

but i know you can't come home till' they're singing

e--3----------------------3-------------------------|
B--3----------------------3-------------------------|
G--0----------------------0-------------------------|
D--2----------------------0-------------------------|
A--3----------------------2-------------------------|
E--X----------------------3-------------------------|

la, la la la, la la la, till everyone is singing

e--3-----3--------3--------------3--------------------|
B--3-----3--------3--------------3--------------------|
G--0-----2--------0--------------0--------------------|
D--2-----0--------2--------------0--------------------|
A--3-----0--------2--------------2--------------------|
E--X-----2--------0--------------3--------------------|

CHORUS
if you can wait till' i get home

e--3-----------------------3----------------------|
B--3-----------------------3----------------------|
G--0-----------------------2----------------------|
D--0-----------------------0----------------------|
A--2-----------------------0----------------------|
E--3-----------------------2----------------------|

then i swear to you, that we can make this last

e--------3------------------3-----------------------|
B--------3------------------3-----------------------|
G--------0------------------0-----------------------|
D--------0------------------2-----------------------|
A--------2------------------3-----------------------|
E--------2------------------X-----------------------|

if you can wait till' i get home

e--3-----------------------3----------------------|
B--3-----------------------3----------------------|
G--0-----------------------2----------------------|
D--0-----------------------0----------------------|
A--2-----------------------0----------------------|
E--3-----------------------2----------------------|

then i swear come tomorrow this will all be in our past

e--3--------------------------------3---------------|
B--3--------------------------------3---------------|
G--0--------------------------------0---------------|
D--2--------------------------------2---------------|
A--2--------------------------------3---------------|
E--0--------------------------------X---------------|

it might be for the best

e----------3---------------------------------------|
B----------3---------------------------------------|
G----------0---------------------------------------|
D----------0---------------------------------------|
A----------2---------------------------------------|
E----------3---------------------------------------|
BRIDGE:

you know you can't give me what i need

e--------------------3--------------3---------------|
B--------------------3--------------3---------------|
G--------------------2--------------0---------------|
D--------------------0--------------0---------------|
A--------------------0--------------2---------------|
E--------------------2--------------3---------------|

and even though you mean so much to me,

e-------------------------3------------------------|
B-------------------------3------------------------|
G-------------------------0------------------------|
D-------------------------2------------------------|
A-------------------------2------------------------|
E-------------------------0------------------------|

(stop playing)
i can't wait through everything
is this really happening?
(start playing)

i swear i'll never be happy again

e--3---------------------3--------------------------|
B--3---------------------3--------------------------|
G--2---------------------0--------------------------|
D--0---------------------0--------------------------|
A--0---------------------2--------------------------|
E--2---------------------3--------------------------|

and don't you dare say we can just be friends

e----3---------------------------------------------|
B----3---------------------------------------------|
G----0---------------------------------------------|
D----2---------------------------------------------|
A----2---------------------------------------------|
E----0---------------------------------------------|

i'm not some boy that you can sway

e--------------------------3-----------------------|
B--------------------------3-----------------------|
G--------------------------0-----------------------|
D--------------------------2-----------------------|
A--------------------------2-----------------------|
E--------------------------0-----------------------|

we knew it'd happen eventually

la, la la la, la la la. now everyone is singing

e--3-----3--------3--------------3--------------------|
B--3-----3--------3--------------3--------------------|
G--0-----2--------0--------------0--------------------|
D--2-----0--------2--------------0--------------------|
A--3-----0--------2--------------2--------------------|
E--X-----2--------0--------------3--------------------|

la, la la la, if you can wait till i get home


e--3-----3----------------------3--------------------|
B--3-----3----------------------3--------------------|
G--0-----2----------------------0--------------------|
D--2-----0----------------------0--------------------|
A--3-----0----------------------2--------------------|
E--X-----2----------------------3--------------------|

then i swear we can make this last

e--------3-----------3------------------------------|
B--------3-----------3------------------------------|
G--------2-----------0------------------------------|
D--------0-----------2------------------------------|
A--------0-----------2------------------------------|
E--------2-----------0------------------------------|

now everyone is singing

e----3---------------------------------------------|
B----3---------------------------------------------|
G----0---------------------------------------------|
D----0---------------------------------------------|
A----2---------------------------------------------|
E----3---------------------------------------------|
Suggest correction
comments
print report bad tab
3 comments total.
0 reply
Chaz_Star123 10 wrote on May 6 2009, 09:44 am

Finaly a tab for this song, nice tab:D

0 reply
ETF-RoxMySox 10 wrote on September 22 2009, 08:27 pm

nice, now just get the other guitar in, and my be electric, or is it the same?

0 reply
mcraddict81592 250 wrote on December 15 2009, 05:51 pm

I'm pretty sure this is the exact same as version one...

guest
You may want to rate the tab now too:
select rating
Please do not post tabs as comments. Select "correction" instead!