Oops, an error
Loading. Please wait.

If It Means A Lot To You Tab

version 3
version 3

Whole song

Interactive

Video

99,091 views 327 this week
6 commentsread comments
1 2 3 4 5
excellent!
x 32
add to favorites
launch autoscroll
font size
0
reset
how to read this tab
guitar tuner
Autoscroll
slow
fast
+/-
esc
set tempo
stop
Help us to improve Ultimate-Guitar.com Take our survey!
×
Author
Difficulty
novice
Notice:  I have a few covers on my YouTube page under "Ricoa283".  
I put my most recent cover of it with all the lead parts included on there 
if you need a visual.  This tab was made over a year ago so this is without 
any lead parts.  I'm currently in the process of updating this tab so that 
lead parts are included.  Please bare with me as it'll take some time to do so.  

If you have any questions, please contact me via e-mail or YouTube
Rarriaga@emich.edu



Tuning: D-G-C-F-A-D


CHORDS:
   F     C     G    Am
|--3--|--3--|--3--|-----|
|--1--|--1--|-----|--1--|
|--2--|-----|-----|--2--|
|--3--|--2--|-----|--2--|
|-----|--3--|--2--|-----|
|-----|-----|--3--|-----|
*pinky on 3rd fret for F and G chords.  he plays those chords like that live

INTRO:

Guitar 1  F, C, G

Guitar 2

----------------------------8--8-----------------------------------|
--3h5-3-------3h5-3---------8--8-----3h5-3-------------------------|
--------h5-2-------h5-2-----0--0----------h5-2---4-5-5-4-4-4-5-4-2-|
-------------------------------------------------------------------|
-------------------------------------------------------------------|
-------------------------------------------------------------------|


Guitar 3 (second time around)

----------------------------8--8-----------------------------------|
--6h8-6-------6h8-6---------8--8-----6h8-6-------------------------|
--------h9-5-------h9-5-----0--0----------h9-5---7-9-9-7-7-7-9-7-5-|
-------------------------------------------------------------------|
-------------------------------------------------------------------|
-------------------------------------------------------------------|

Verse 1

Am        C      G                  Am
Hey darling, I hope you're good tonight

        C                  G
And I know you don't feel right when I'm leaving


Guitar 2 lead - (2nd part of verse):

-------------3--------------3------------3-------------3------|
---------3-----3---------3---3--------3---5---------3----3----|
---5-5-5---5-----5-5-5-5--5---5-5-5-5---5---5-4-4-4---4----4--|
--------------------------------------------------------------| x2
--------------------------------------------------------------|
--------------------------------------------------------------|

Am
Yeah, I want it but no, I don't need it

C                 G               Am
Tell me something sweet to get me by

 C                       G
'Cause I can't come back home 'til they're singin'


Pre Chorus

F(pm)    G(pm)     Am(pm)
La, la la la, la la la
     G
'Til everyone is singin'



(Chorus)

Guitar 2 lead:

----8-----8-----8-----|
------8-----8---------|
--------5-----5----5--|
----------------------| x16
----------------------|
----------------------|

C                    G
If you can wait 'til I get home

       Am                                 F
Then I swear to you that we can make this last (La la la)

C                    G
If you can wait 'til I get home

       Am                                           F
Then I swear come tomorrow, this will all be in our past

C           G
It might be for the best

(Intro Riff Again)

(Same as Verse 1)
Hey sweetie, I need you here tonight
And I know that you don't wanna be leaving
Yeah, you want it but I can't help it
I just feel complete when you're by my side
But I know you can't come home 'til they're singin'

F         G           Am
La, la la la, la la la

     C
'Til everyone is singin'

F        G           C
La, la la la, la la la

Chorus (Repeat)
If you can wait 'til I get home
Then I swear to you that we can make this last
(La la la)
If you can wait 'til I get home
Then I swear come tomorrow, this will all be in our past
It might be for the best

  F                                  C
You know you can't give me what I need

                         Am
And even though you mean so much to me

                        G
I can wait through everything


Is this really happening?

(Palm mute)
   F                        C
I swear I'll never be happy again

                              Am
And don't you dare say we can just be friends

                              G
I'm not some boy that you can sway


We knew it'd happen eventually

Electric guitar (Drop C)

F5       G5        A5
La, la la la, la la la
C5
Now everybody's singin'

F5       G5        A5
La, la la la, la la la
C5
Now everybody's singin'
(If you can wait 'til I get home)

F5       G5        A5
La, la la la, la la la
C5
Now everybody's singin'
(Then I swear we can make this last)


La, la la la, la la la
Now everybody's singin'

If you can wait 'til I get home
Then I swear we can make this last
Suggest correction
What's this?
You can suggest a correction to this tab. Community and Mods will review your correction and vote to approve or reject it.
comments
print report bad tab
6 comments total. Showing first comments.
+1 reply
brokenribbs 15 wrote on August 17 2011, 04:09 am

This is a much better way to play it I think, considering it actually uses a dropped tuning. Very accurate. Nice work.

0 reply
Sweet Laddio 1,003 wrote on June 21 2012, 05:50 pm

Thanks very much for doing it in the correct tuning. Great tab.

-2 reply
bball1290 10 wrote on August 14 2012, 05:59 am

Hey man just to let u know im pretty sure the part where u have the elec guitar part at the end is a little off, i think you have written the chords as they would be in standard tuning so it should read D#, F, G, A#

guest
You may want to rate the tab now too:
select rating
Please do not post tabs as comments. Select "correction" instead!