Oops, an error
Loading. Please wait.

If It Means A Lot To You Tab

version 5
version 5

Whole song

Interactive

Video

1,819 views 3 this week
no commentswrite comment
1 2 3 4 5
please rate
add to favorites
launch autoscroll
font size
0
reset
how to read this tab
guitar tuner
Autoscroll
slow
fast
+/-
esc
set tempo
stop
Help us to improve Ultimate-Guitar.com Take our survey!
×
Tuning
D G C F A D
-------------------------------------------------------------------------------
                             If It Means A Lot To You - A Day To Remember
-------------------------------------------------------------------------------
Tabbed by: rekcoRocker
E-mail:

Tuning: Down 1 whole step (low to high) DGCFAd
Chords used: Eb, Bb, F, and Gm (in standard tuning open chord formations F, C, G, and Am).
Figure out what they look like and the strum pattern yourselves.
Also too lazy to put the harmony for lead guitar.  Pretty sure they use minor 3rds (2 notes higher in scale).
I think this is 100% correct. When they play live, they don't capo the 3rd fret like people say.

     Intro
d|------------------------8-8---------------------------------------------------5~--|
A|------------------------8-8---------------------------------------------------5~--|
F|--7/9\7\5----7/9\7\5----5-5--7/9\7\5---455444544-----play 2x then end on ---------|
C|----------7----------7---------------7--------------------------------------------|
G|----------------------------------------------------------------------------------|
D|----------------------------------------------------------------------------------|
     Verse 1
d|-------3-------3--------3-------3--------3-------3--------3-------3--------|
A|-----5--5----5--5-----3--3-3--0--0-----5----3--3--5-----3--3-0--0--0-------|
F|-5~-5-5--5555-5--55~-5-5--5-55-5--55~-5-5-55-55-5--55--5-5--5-55-5--5------|
C|---------------------------------------------------------------------------|
G|---------------------------------------------------------------------------|
D|---------------------------------------------------------------------------|
    Pre-Chorus
d|---------------------------------------------------------------------------|
A|-55555555333366665555555555555555------------------------------------------|
F|-55555555555555555555555555555555------------------------------------------|
C|---------------------------------------------------------------------------|
G|---------------------------------------------------------------------------|
D|---------------------------------------------------------------------------|
    Chorus
d|--8--8--8-8--8--8-8--8--8-8--8--8-8--8--8-8--8--8-8--8--8-8--8--8----------|
A|---8--8----8--8----8--8----8--8----8--8----8--8----5--5----6--5------------|
F|-5--5--5-5--5--5-7--7--7-7--7--7-5--5--5-5--5--5-5--5--5-5-----5-----------|
C|------------------------------------------------------------7--------------|
G|---------------------------------------------------------------------------|
D|---------------------------------------------------------------------------|

d|--8--8--8-8--8--8-8--8--8-8--8--8-8--8--8-8--8--8-8--8--8-8--8-------------|
A|---8--8----8--8----8--8----8--8----8--8----8--8----5--5----5--0------------|Then play intro 1x
F|-5--5--5-5--5--5-7--7--7-7--7--7-5--5--5-5--5--5-5--5--5-5--5--5-----------|
C|---------------------------------------------------------------------------|
G|---------------------------------------------------------------------------|
D|---------------------------------------------------------------------------|
    Verse 2 (different picking pattern)
d|-------3-------3--------3-------3--------3-------3--------3-------3--------|
A|-----5--5-5--5--5-----3--3-0--0--0-----5----5--5--5-----3--3-0--0--0-------|
F|-5~-5-5--5-55-5--55~-5-5--5-55-5--55~-5-5-55-55-5--55~-5-5--5-55-5--5------| Then Pre-Chorus 1x
C|---------------------------------------------------------------------------|
G|---------------------------------------------------------------------------|
D|---------------------------------------------------------------------------|

d|------------------------------------------------8--8--8-8--8---------------|
A|-5555555533336666--------------------------------5--5----5--5--------------|
F|-5555555555555555------Then chorus but end in--5--5--5-5--5--5-------------|
C|---------------------------------------------------------------------------|
G|---------------------------------------------------------------------------|
D|---------------------------------------------------------------------------|
    Bridge
d|-----3--------3-----0-3-------3-------3---3---3-----333333333------------------------|
A|---1--1-1---1--1-1-1-1-1-11-1--1-11-1--1-1--1--1-1--000000000------------------------|
F|-2--2--2-----2--2-0-----0--0-0--0--0-0--0--2-0--0---000000000------------------------|
C|--3--------3----------------------------------------000000000------------------------|
G|----------------------------------------------------222222222------------------------|
D|----------------------------------------------------333333333------------------------|
    Outro
d|-------------------------------------------------------------------------------------|
A|-------------------------------------------------------------------------------------|
F|-------------------------------------------------------------------------------------|
C|-3333/5555/7777/10101010\3333/5555/7777/10101010-------------------------------------|
G|-3333/3333/7777/10101010\3333/5555/7777/10101010-------------------------------------|
D|-1111/3333/5555/ 8 8 8 8\1111/3333/5555/ 8 8 8 8-------------------------------------|

d|----5-5-5-----5-5-5-----5-5-5-----5---8-----5-5-5-----5-5-5-----5-5-5-----5-----8~---|
A|-5h8-8-8-8-5h8-8-8-8-5h8-8-8-8-5h8-8-8-8-5h8-8-8-8-5h8-8-8-8-5h8-8-8-8-5h8-85865-----|
F|------------------------------------5------------------------------------------------|
C|-------------------------------------------------------------------------------------|
G|-------------------------------------------------------------------------------------|
D|-------------------------------------------------------------------------------------|

************************************

| /   slide up
| \   slide down
| h   hammer-on
| ~   vibrato

************************************
Suggest correction
Give kudos to tab author, rate the tab!
1 2 3 4 5
comments
print report bad tab
guest
You may want to rate the tab now too:
select rating
Please do not post tabs as comments. Select "correction" instead!