Oops, an error
Loading. Please wait.

If It Means A Lot To You Tab

version 6
version 6

Whole song

Interactive

Video

648 views 21 this week
no commentswrite comment
1 2 3 4 5
please rate
add to favorites
launch autoscroll
font size
0
reset
how to read this tab
guitar tuner
Autoscroll
slow
fast
+/-
esc
set tempo
stop
Help us to improve Ultimate-Guitar.com Take our survey!
×
Author
About this tab version
This one is the tab without the capo. Was this info helpful? Yes No
-------------------------------------------------------------------------------
                             If It Means A Lot To You - A Day To Remember
-------------------------------------------------------------------------------
Tabbed by:
E-mail:

Tuning: eBGDAE

Intro: 0:00-0:15

e|---------------------------------------------------------------------------|
B|-----3----------3---------3-3----------------------------------------------|
G|---5---5--3---5---5--3----3-3----------------------------------------------|
D|------------5----------5--3-3----------------------------------------------|
A|---------------------------------------------------------------------------|
E|---------------------------------------------------------------------------|

e|---------------------------------------------------------------------------|
B|-----3---------------------------------------------------------------------|
G|---5---5--3------7-3-2-2-3-2-2---------------------------------------------|
D|------------5--5-----------------------------------------------------------|
A|---------------------------------------------------------------------------|
E|---------------------------------------------------------------------------|

e|---------------------------------------------------------------------------|
B|-----3----------3----------3-3---------------------------------------------|
G|---5---5--3---5---5--3-----3-3---------------------------------------------|
D|------------5----------5---3-3---------------------------------------------|
A|---------------------------------------------------------------------------|
E|---------------------------------------------------------------------------|

e|-------------------------------------3-------------------------------------|
B|-----3-------------7-3-2-2-2-3-2-2---3-------------------------------------|
G|---5---5--3--5--3--------------------0-------------------------------------|
D|---------------------------------------------------------------------------|
A|---------------------------------------------------------------------------|
E|---------------------------------------------------------------------------|

No guitar- 0:15-0:30

Verses

e|---------------------------------------------------------------------------|
B|-----------6-0---------6-3---------6-3---------6-0---------6-3-------------|
G|---3-3-3-3-----3-3-3-3-----3-3-3-3-----3-3-3-3-----3-3-3-3-----------------|
D|---------------------------------------------------------------------------|
A|---------------------------------------------------------------------------|
E|---------------------------------------------------------------------------|

e|---------------------------------------------------------------------------|
B|-----------6-3---------6-3---------6-3-------------------------------------|
G|---3-3-3-3-----3-3-3-3-----3-3-3-3-----------------------------------------|
D|---------------------------------------------------------------------------|
A|---------------------------------------------------------------------------|
E|---------------------------------------------------------------------------|

Chorus

e|---6---------6---6-----------6---------------------------------------------|
B|-----6-6-6-6---6----6-6-6-6------------------------------------------------|
G|---------------------------------------------------------------------------| x3
D|---------------------------------------------------------------------------|
A|---------------------------------------------------------------------------|
E|---------------------------------------------------------------------------|



************************************

| /   slide up
| \   slide down
| h   hammer-on
| p   pull-off
| ~   vibrato
| +   harmonic
| x   Mute note
| b   Bend
| pb  Pre-bend
| br  Bend release
| pbr Pre-bend release
| brb Bend release bend

************************************
Suggest correction
Give kudos to tab author, rate the tab!
1 2 3 4 5
comments
print report bad tab
guest
You may want to rate the tab now too:
select rating
Wanna post a correction for this tab? Suggest correction