Oops, an error
Loading. Please wait.

If Looks Could Kill Bass Tab

version 1
version 1

Whole song

Interactive

16 views 1 this week
no commentswrite comment
1 2 3 4 5
3 more votes to show rating
add to favorites
launch autoscroll
font size
0
reset
guitar tuner
Autoscroll
slow
fast
+/-
esc
set tempo
stop
Help us to improve Ultimate-Guitar.com Take our survey!
×
Author
Difficulty
Tuning
intermediate
C G C F A D
A Day To Remember - If Looks Could Kill

Tabbed by: Ash (XxThreeCheersxX)
email: burdickash@gmail.com

Tuning: CGCF

Intro
F|-------------|
C|-------------|
G|-------------|
C|-0--2--5--4--|

Verse
F|-----------------------------------------------------------------------|
C|-----------------------------------------------------------------------|
G|-2~--------------------------------------------------------------------| x 2
C|-------------------5--5--5-5----5--5--5-5----5--5--5-5----5--5--5-5----|

F|------------------------------------------------------------------|
C|------------------------------------------------------------------|
G|-2-2-2-2-2-2-2-2-2-2-2-2-2-2-2-2-2--2-2-2-2-2-2-2-2-2-2-2-0-0-0-0-|
C|------------------------------------------------------------------|
                                                                             x 2
F|-----------------------------------------------------|
C|-----------------------------------------------------|
G|-----------------------------------------------------|
C|-5--5--5-5----5--5--5-5----5--5--5-5----5--5--5-5----|

Refrain
F|-------------------------------------------------------------------|
C|-------------------------------------------------------------------|
G|---------------------------------2-2-2-2-2-2-2-2-0-0-0-0-0-0-0-0-0-|
C|-2-2-2-2-2-2-2-2-2-2-2-2-2-2-2-2-----------------------------------|

F|-------------------------------------------------------------------|
C|-------------------------------------------------------------------|
G|-------------------------------------------------------------------|
C|-2-2-2-2-2-2-2-2-2-2-2-2-2--2-2-5~---------------------------------|

Intro

Verse II
F|------------------------------------------------------------------|
C|------------------------------------------------------------------|
G|-2-2-2-2-2-2-2-2-2-2-2-2-2-2-2-2-2--2-2-2-2-2-2-2-2-2-2-2-0-0-0-0-|
C|------------------------------------------------------------------|
                                                                             x 4
F|-----------------------------------------------------|
C|-----------------------------------------------------|
G|-----------------------------------------------------|
C|-5--5--5-5----5--5--5-5----5--5--5-5----5--5--5-5----|

Refrain

Bridge
F|-------------------------------------------------------------------------------------------------|
C|-------------------------------------------------------------------------------------------------|
G|-------------------------------------------------2-2-2--2-2-2--2~--------------------------------|
C|-0-0-0--0-0-0--0~--------0-0-0--0-0-0--0~--------------------------------5-5-5--5-5-5--5~--------|

F|--------------------------------------------------------------------------------------------------|
C|--------------------------------------------------------------------------------------------------|
G|-------------------------------------------------2-2-2--2-2-2--2~---------------------------5-----|
C|-0-0-0--0-0-0--0~--------0-0-0--0-0-0--0~--------------------------------5-5-5--5-5-5--5-5-----5--|

Bridge II
F|-----------------------------------------------------|
C|-----------------------------------------------------|
G|-----------------------------------------------------|
C|-5~----------------5--5-5--5~----------------5--5-5--|

F|-----------------------------------------------------|
C|-----------------------------------------------------|
G|-----------------------------------------------------|
C|-5~----------------5--5-5--5~------------------------|

Bridge III x 2
F|-------------------------------------------------|
C|--------7-----------7-----------7----7-----------|
G|----------5-----------5-----------5-----5--------|
C|-5--5-5------5--5-5------5--5-5------------5--7--|

F|-------------------------------------------------|
C|--------7-----------7-----------7----------------|
G|----------5-----------5-----------5--------------|
C|-5--5-5------5--5-5------5--5-5------5--5--7-----|

Bridge IV
F|---------------------------------------------------------------------------|
C|---------------------------------------------------------------------------|
G|---------------------------------------------------------------------------|
C|-5-5-5-5----5-5--5-5--5-5-5-5--------5-5-5-5----5-5--5-5--5-5-5-5------12\-|

F|---------------------------------------------------------------------------|
C|---------------------------------------------------------------------------|
G|---------------------------------------------------------------------------| x 2
C|-0-0-0-0----0-0--0-0--0-0-0-0--------0-0-0-0----0-0--0-0--0-0-0-0----------|

Bridge II

Bridge III x 2

Outro
F|-------------------------------------------|
C|-------------------------------------------|
G|-------------------------------------------| x 8 (or until fades out completely)
C|-0--0--0----0--0--0----0--0--0-------------|


Happy playing!


************************************

| x   Dead note
| g   Grace note
| (n) Ghost note
| h   Hammer-on
| p   Pull-off
| r   Release
| >   Accented note
| t   Tapping
| b   Bend
| br  Bend release
| pb  Pre-bend
| pbr Pre-bend release
| /   Slide up
| \   Slide down
| ~   Vibrato
| s   Slap
| P   Pop
| PM  Palm mute
| TR  Trill
| N   Tremolo

************************************
Suggest correction
Give kudos to tab author, rate the tab!
1 2 3 4 5
comments
print report bad tab
guest
You may want to rate the tab now too:
select rating
Wanna post a correction for this tab? Suggest correction