Oops, an error
Loading. Please wait.

If Looks Could Kill Tab

version 1
version 1

Whole song

Interactive

5,750 views 6 this week
7 commentsread comments
1 2 3 4 5
excellent!
x 3
add to favorites
launch autoscroll
font size
0
reset
how to read this tab
guitar tuner
Autoscroll
slow
fast
+/-
esc
set tempo
stop
Help us to improve Ultimate-Guitar.com Take our survey!
×
Author
---------------------------------------------------------------------------------
                   If Looks Could Kill - A Day To Remember
---------------------------------------------------------------------------------
Tabbed by:Matt Corbin
Email:rdx20-01@hotmail.com

Tuning:Drop C

This is my quick transcription of this tab. There are no tabs for it so i 
decided to try and make one, its my first tab. I'll make improvements if i 
hear i need to.

I should note, this was based of the remastered version from Old Record,
though the differences between them are very minor.

Lead Guitar

INTRO   
             \/ Hold this for a while                                           x4        
d|---------|--------------------------------------------------------------------|
A|---------|--------------------------------------------------------------------|
F|---------|.7~-12--12-12--12-12---11--11-11--11-11---9--9-9--9-9---7--7-7--7-7.|
C|-0-2-5-4-|.x---x---x--x---x--x----x---x--x---x--x---x--x-x--x-x---x--x-x--x-x.|
G|-0-2-5-4-|-5~-10--10-10--10-10----9---9--9---9--9---7--7-7--7-7---5--5-5--5-5-|
C|-0-2-5-4-|--------------------------------------------------------------------|
          

On the 3rd & 4th repeat, change the held note to something like this
(release the palm mute for a note or two or throw in a pinch harmonic at the end)

d|------------------------------------------------|
A|------------------------------------------------|
F|--7-7-7-7-7-7-7-7-7-7-7-7-7-7-7-7-7-7-7-7-7-----|
C|--x-x-x-x-x-x-x-x-x-x-x-x-x-x-x-x-x-x-x-x-x-----|
G|--5-5-5-5-5-5-5-5-5-5-5-5-5-5-5-5-5-5-5-5-5-----|
C|------------------------------------------------|
    . . . . . . . . . . . . . . . . . . . . .  
  

Bridge
Just straight up and down strokes.
d|-----------------------------|
A|-----------------------------|
F|-7-x28--6-x8--7-x16----------|
C|-x------x-----x--------------|
G|-5------4-----5--------------|
C|-----------------------------|

Now repeat the whole thing from the very beginning of the intro!

when you get back here the second time play this


Breakdown

Pt.1                                                  x2
d|----------------------------------------------------|
A|----------------------------------------------------|
F|----------------------------------------------------|
C|----------0-----------0-----------9-----------5-----|
G|--000-000-0---000-000-0---999-999-9---555-555-5-----|
C|--000-000-0---000-000-0---999-999-9---555-555-5-----|
    ... ...     ... ...     ... ...     ... ...

Pt.2
d|-----------------------------------------14--------14------------|
A|--------------------------------------------15--------15---------|
F|-----------------------------------------------14--------14------|
C|-5-5~-----5-5~-----5-5~-----5-5~---------------------------------|
G|-5-5~-----5-5~-----5-5~-----5-5~---------------------------------|
C|-5-5~-----5-5~-----5-5~-----5-5~---------------------------------|
   *        *        *        *

Pt.3                                 X4
d|-----------------------------------|
A|-----------------------------------|
F|-----------------------------------|
C|------7-------7-------7------7-----|
G|--------5-------5-------5--5-5-----|
C|-5-55------55------55------5(7)----|
   . ..      ..      ..      *

Ending 1                                                                        
                                                                                x2
d|-------------------------------------|----------------------------------------|
A|-------------------------------------|----------------------------------------|
F|-------------------------------------|.--------------------------------------.|
C|-------------------------------------|.--------------------------------------.|
G|--5555_55-55-5555---5555-55-55-5555--|--\0000-00-00-0000-0000-00-00-0000------|
C|--5555-55-55-5555---5555-55-55-5555--|--\0000-00-00-0000-0000-00-00-0000------|
    .... .. .. ....   .... .. .. ....      .... .. .. .... .... .. .. ....


Now go back and repeat from Pt.2 of the breakdown. Then go to Ending 2 after Pt.3

Ending 2

d|---------------------------------------------------|
A|---------------------------------------------------|
F|---------------------------------------------------|
C|---------------------------------------------------|
G|-0-0-0--0-0-0--0-0-0----0-0-0--0-0-0--0-0-0--------|
C|-0-0-0--0-0-0--0-0-0----0-0-0--0-0-0--0-0-0--------|
   . . .  . . .  . . .    . . .  . . .  . . .

Repeat Ending 2 until fade out





Rhythm Guitar
 
Intro          
             Alot of up/down palm mute chugging here                            x4
d|---------|--------------------------------------------------------------------|
A|---------|--------------------------------------------------------------------|
F|---------|.------------------------------------------------------------------.|
C|-0-2-5-4-|.------------5--5-5--5-5---5--5-5--5-5---5--5-5--5-5---5--5-5--5-5-.|
G|-0-2-5-4-|---5-xalot---5--5-5--5-5---5--5-5--5-5---5--5-5--5-5---5--5-5--5-5--|
C|-0-2-5-4-|---5---------5--5-5--5-5---5--5-5--5-5---5--5-5--5-5---5--5-5--5-5--|
               .

Bridge
I recently received an email containing this correction for this part.
Thanks for the help!

d|----------------------------------------|
A|----------------------------------------|
F|----------------------------------------|
C|-2------9-----11-----2------4-4-4-5~----|
G|-2-x16--9-x8--11-x8--2-x12--4-4-4-5~----|
C|-2------9-----11-----2------4-4-4-5~----|
                                  .
Repeat from very beginning


Breakdown

Pt.1                                                  x2
d|----------------------------------------------------|
A|----------------------------------------------------|
F|----------------------------------------------------|
C|----------0-----------0-----------9-----------5-----|
G|--000-000-0---000-000-0---999-999-9---555-555-5-----|
C|--000-000-0---000-000-0---999-999-9---555-555-5-----|
    ... ...     ... ...     ... ...     ... ...

Pt.2
d|--------------------------------------|
A|--------------------------------------|
F|--------------------------------------|
C|-5-5~-----5-5~-----5-5~-----5-5~------|
G|-5-5~-----5-5~-----5-5~-----5-5~------|
C|-5-5~-----5-5~-----5-5~-----5-5~------|
   *        *        *        *

Pt.3                                 X4
d|-----------------------------------|
A|-----------------------------------|
F|-----------------------------------|
C|------7-------7-------7------7-----|
G|--------5-------5-------5--5-5-----|
C|-5-55------55------55------5(7)----|
   . ..      ..      ..      *

Ending 1                                                                        
                                                                                x2
d|-------------------------------------|----------------------------------------|
A|-------------------------------------|----------------------------------------|
F|-------------------------------------|.--------------------------------------.|
C|-------------------------------------|.--------------------------------------.|
G|--5555_55-55-5555---5555-55-55-5555--|--\0000-00-00-0000-0000-00-00-0000------|
C|--5555-55-55-5555---5555-55-55-5555--|--\0000-00-00-0000-0000-00-00-0000------|
    .... .. .. ....   .... .. .. ....      .... .. .. .... .... .. .. ....


Now go back and repeat from Pt.2 of the breakdown. Then go to Ending 2 after Pt.3

Ending 2

d|---------------------------------------------------|
A|---------------------------------------------------|
F|---------------------------------------------------|
C|---------------------------------------------------|
G|-0-0-0--0-0-0--0-0-0----0-0-0--0-0-0--0-0-0--------|
C|-0-0-0--0-0-0--0-0-0----0-0-0--0-0-0--0-0-0--------|
   . . .  . . .  . . .    . . .  . . .  . . .

Repeat Ending 2 until fade out







FIN!



************************************

| /   slide up
| \   slide down
| h   hammer-on
| p   pull-off
| ~   vibrato
| +   harmonic
| x   Mute note
| b   Bend
| pb  Pre-bend
| br  Bend release
| pbr Pre-bend release
| brb Bend release bend
| .   palm mute
| *   staccato

************************************
Suggest correction
Give kudos to tab author, rate the tab!
1 2 3 4 5
comments
print report bad tab
7 comments total. Showing first comments.
0 reply
Alpha_Wolf 144 wrote on April 16 2010, 11:46 am

Uh... which album is this on?

0 reply
RDX1138 111 wrote on April 16 2010, 03:33 pm

And Their Name Was Treason/Old Record

0 reply
Alpha_Wolf 144 wrote on April 19 2010, 12:16 pm

Alright, I figured it would have to be after I posted that comment.

guest
You may want to rate the tab now too:
select rating
Please do not post tabs as comments. Select "correction" instead!