Oops, an error
Loading. Please wait.

Im Already Gone Tab

version 2
version 2

Whole song

Interactive

3,338 views 12 this week
1 commentread comment
1 2 3 4 5
excellent!
x 5
add to favorites
launch autoscroll
font size
0
reset
how to read this tab
guitar tuner
Autoscroll
slow
fast
+/-
esc
set tempo
stop
Help us to improve Ultimate-Guitar.com Take our survey!
×
Author
Difficulty
Tuning
intermediate
D G C F A D
I'm Already Gone
A Day to Remember
Common Courtesy (2013)

This is my tab of ADTR's I'm Already Gone, both guitar parts.
I learned this right from watching Neil and Kevin play it,
this is the most accurate tab you'll find!

Link to my cover:
https://www.youtube.com/watch?v=Vj9Hv56Nibs

Tuning: Guitar I: D Standard (D G C F A D) (Acoustic)
        Guitar II: D Standard (D G C F A D) (Clean Electric)


GUITAR I:

CHORDS:

Cadd9:       Em7:       Em7(2):     Dsus4:       G:           Dadd11:      Bm#5:        Dadd9:

D  |---3---|   |---3---|   |---3---|   |---3---|    |---3---|    |---3---|    |---3---|    |--(5)--|   
A  |---3---|   |---3---|   |---3---|   |---3---|    |---3---|    |---3---|    |---3---|    |---5---|
F  |---0---|   |---0---|   |---0---|   |---2---|    |---0---|    |---0---|    |---0---|    |---x---|
C  |---2---|   |---2---|   |---2---|   |---0---|    |---0---|    |---0---|    |---0---|    |---5---|
G  |---3---|   |---0---|   |---2---|   |-------|    |---2---|    |---x---|    |---2---|    |---4---|
D  |-------|   |-------|   |-------|   |-------|    |---3---|    |---2---|    |-------|    |-------|


INTRO:

Cadd9    Em7    Cadd9    Em7


VERSE:

Cadd9                                  Em7
As I look round this make shift moving house
                                 Cadd9
I'm searching for whatever's left of me
                                       Em7
It's on the ground in a box that reads lost and found.
It's lost and found.


PRE-CHORUS:

Em7(2)  Dsus4          Cadd9
She said,   just let it go.
   Em7(2)      Dsus4           Cadd9
She said, it's all you've ever known.


CHORUS:

G               Dadd11 Cadd9
And I'm, I'm already gone
       Bm#5  Em7(2)       Dsus4             Cadd9
I'm already something to someone that I don't know.
           Dsus4
When will I know?
G                 Dadd11 Cadd9
And I'm, I'm out making rounds
          Bm#5  Em7
On every side of town
          Dsus4               Cadd9
That I've been through, that I know.
            Dsus4
To find my reason to come back home.


VERSE 2:

Cadd9                                     Em7
I've worked it out you'll always bring me down.
                                    Cadd9
From here on out I'm doing things for me.
                                        Em7
I'm impatient now. I'm not the type for life alone,
I need someone.


PRE-CHORUS:

Em7(2)   Dsus4          Cadd9
She said,   just let it go.
Em7(2)        Dsus4            Cadd9
She said, it's all you've ever known.


CHORUS:

G               Dadd11 Cadd9
And I'm, I'm already gone
       Bm#5  Em7(2)       Dsus4             Cadd9
I'm already something to someone that I don't know.
           Dsus4
When will I know?
G                 Dadd11 Cadd9
And I'm, I'm out making rounds
          Bm#5  Em7
On every side of town
          Dsus4               Cadd9
That I've been through, that I know.
            Dsus4
To find my reason to come back home.


BRIDGE:

Cadd9               Dadd9
  With everything that sets me back,
Em7                   Dsus4
  I push back harder to clear the way.
Cadd9                  Dadd9
   There's not a thing that I regret,
Em7                       Dsus4
  Can't live my life in yesterday.
  [x2]

       Cadd9
Life in yesterday.


CHORUS:


G               Dadd11 Cadd9
And I'm, I'm already gone
       Bm#5  Em7(2)       Dsus4             Cadd9
I'm already something to someone that I don't know.
           Dsus4
When will I know?
G                 Dadd11 Cadd9
And I'm, I'm out making rounds
          Bm#5  Em7
On every side of town
          Dsus4               Cadd9
That I've been through, that I know.
            Dsus4               G
To find my reason to come back home.


GUITAR II:


CHORDS:

   D6sus4:       F#m:       Em:        Dmaj-sus4:   G5:

D  |---7---|   |---5---|   |---3---|   |---2h3-|    |---3---|
A  |---8---|   |---7---|   |---5---|   |---3---|    |---3---|
F  |---7---|   |--(0)--|   |--(0)--|   |--(0)--|    |---0---|
C  |--(0)--|   |-------|   |-------|   |-------|    |-------|
G  |-------|   |-------|   |-------|   |-------|    |-------|
D  |-------|   |-------|   |-------|   |-------|    |-------|


PRE-CHORUS (BOTH):

      D6sus4  F#m     F#m  Em           F#m Em    F#m
She said,                  just let it go.


Dmaj-sus4  D6sus4  F#m     F#m     Em    G5
  She said,         it's all you've ever     known.

CHORUS (1 & 2):

D  |----------8---------------8---------------8----------------------|
A  |--8h12------12--8-8h12------12--8-8h12------12--8-8h12----13-12--|
F  |-------12--------------12--------------12--------------12--------|
C  |-----------------------------------------------------------------|
G  |-----------------------------------------------------------------|
D  |-----------------------------------------------------------------|

    ---------------------------7--------------------------7-----|
    ------------8----------------8-----------8--------------8---|
    -12----7------7-------7--------7----7------7------7---------|
    ----10---10-----10-10---10-------10---10-----10-9---9-------|
    ------------------------------------------------------------|
    ------------------------------------------------------------|

    -----------10----------------10----------------12----------------10--------|
    -----10-------10-------10-------10-------10-------10-------10-------10-----|
    --12----12-------12-12----12-------12-11----11-------11-11----11-------11--|
    ---------------------------------------------------------------------------|
    ---------------------------------------------------------------------------|
    ---------------------------------------------------------------------------|

    -------10-----------10-------------12----------------10---------|
    ---8------8-----8------8--------10----10-------10-------10------|
    -9---9------9-9---9------9-9s11----------11-11----11-------11---|
    ----------------------------------------------------------------| x1
    ----------------------------------------------------------------|
    ----------------------------------------------------------------|


D  |----------8---------------8---------------8----------------------|
A  |--8h12------12--8-8h12------12--8-8h12------12--8-8h12----13-12--|
F  |-------12--------------12--------------12--------------12--------|
C  |-----------------------------------------------------------------|
G  |-----------------------------------------------------------------|
D  |-----------------------------------------------------------------|

    ---------------------------7--------------------------7-----|
    ------------8----------------8-----------8--------------8---|
    -12----7------7-------7--------7----7------7------7---------|
    ----10---10-----10-10---10-------10---10-----10-9---9-------|
    ------------------------------------------------------------|
    ------------------------------------------------------------|

    -----------10----------------10----------------12----------------10--------|
    -----10-------10-------10-------10-------10-------10-------10-------10-----|
    --12----12-------12-12----12-------12-11----11-------11-11----11-------11--|
    ---------------------------------------------------------------------------|
    ---------------------------------------------------------------------------|
    ---------------------------------------------------------------------------|

    -------10-----------10-----------10-----------|
    ---8------8-----8------8-----8------8--8s10---|
    -9---9------9-9---9------9-9---9-------9s11---|
    ----------------------------------------------| x1
    ----------------------------------------------|
    ----------------------------------------------|

BRIDGE (STARTS IMMEDIATELY AFTER SECOND CHORUS PLAY-THROUGH):

D  |---------------------------------------10-------|
A  |----------3-------3--------7---8---7h8----8-----|
F  |------0-----------------------------------------|
C  |----4---4-----2s4---4----9---9------------------| x4
G  |--3--------------------7------------------------|
D  |------------------------------------------------|


LEADS RIGHT INTO FINAL CHORUS…

D  |----------8---------------8---------------8----------------------|
A  |--8h12------12--8-8h12------12--8-8h12------12--8-8h12----13-12--|
F  |-------12--------------12--------------12--------------12--------|
C  |-----------------------------------------------------------------|
G  |-----------------------------------------------------------------|
D  |-----------------------------------------------------------------|

    ---------------------------7--------------------------7-----|
    ------------8----------------8-----------8--------------8---|
    -12----7------7-------7--------7----7------7------7---------|
    ----10---10-----10-10---10-------10---10-----10-9---9-------|
    ------------------------------------------------------------|
    ------------------------------------------------------------|

    -----------10----------------10----------------12----------------10--------|
    -----10-------10-------10-------10-------10-------10-------10-------10-----|
    --12----12-------12-12----12-------12-11----11-------11-11----11-------11--|
    ---------------------------------------------------------------------------|
    ---------------------------------------------------------------------------|
    ---------------------------------------------------------------------------|

    -------10-----------10-------------12----------------10---------|
    ---8------8-----8------8--------10----10-------10-------10------|
    -9---9------9-9---9------9-9s11----------11-11----11-------11---|
    ----------------------------------------------------------------| x1
    ----------------------------------------------------------------|
    ----------------------------------------------------------------|


D  |----------8---------------8---------------8----------------------|
A  |--8h12------12--8-8h12------12--8-8h12------12--8-8h12----13-12--|
F  |-------12--------------12--------------12--------------12--------|
C  |-----------------------------------------------------------------|
G  |-----------------------------------------------------------------|
D  |-----------------------------------------------------------------|

    ---------------------------7--------------------------7-----|
    ------------8----------------8-----------8--------------8---|
    -12----7------7-------7--------7----7------7------7---------|
    ----10---10-----10-10---10-------10---10-----10-9---9-------|
    ------------------------------------------------------------|
    ------------------------------------------------------------|

    -----------10----------------10----------------12----------------10--------|
    -----10-------10-------10-------10-------10-------10-------10-------10-----|
    --12----12-------12-12----12-------12-11----11-------11-11----11-------11--|
    ---------------------------------------------------------------------------|
    ---------------------------------------------------------------------------|
    ---------------------------------------------------------------------------|

    -------10-----------10-----------10------------------|
    ---8------8-----8------8-----8------8--8s10--10~~----|
    -9---9------9-9---9------9-9---9-------9s11--12~~----|
    -----------------------------------------------------| x1
    -----------------------------------------------------|
    -----------------------------------------------------|
Suggest correction
What's this?
You can suggest a correction to this tab. Community and Mods will review your correction and vote to approve or reject it.
comments
print report bad tab
1 comment total.
0 reply
ChemicalKidd117 13 wrote on October 7 2014, 08:44 pm

Great tab! Can you help me figure out the strumming pattern for the pre-chorus?

guest
You may want to rate the tab now too:
select rating
Please do not post tabs as comments. Select "correction" instead!