Oops, an error
Loading. Please wait.

Im Made Of Wax Larry What Are You Made Of Bass Tab

version 3
version 3

Whole song

Interactive

1,527 views 6 this week
no commentswrite comment
1 2 3 4 5
please rate
add to favorites
launch autoscroll
font size
0
reset
guitar tuner
Autoscroll
slow
fast
+/-
esc
set tempo
stop
Help us to improve Ultimate-Guitar.com Take our survey!
×
Author
Tuning
C G C F A D
Verse 0:10
F|----------------------------------------------------------------------|
C|----------------------------------------------------------------------|
G|-12\-00-000-000-000-0----------------------------------------22-2-2-2-|
C|---------------------66-666-666-6666633-333-333-333--11-111-1---------|

Pre Chorus 
F|------------------------------------------------------------------------|
C|------------------------------------------------------------------------|
G|-0003333-----------------------------0003333----------------------------|
C|--------6-66666666-33333333-66666666--------6-6666666-33333333-66666666-|

Chorus 0:35
F|-----------------------------------------------------------------|
C|-----------------------------------------------------------------|
G|-00~000~000~000~0----------------33-333-333-333-3----------------|
C|-----------------33~333~333~333~3----------------555555555-5-5-5-|

Verse 0:50
F|-------------------------------------------------------------------|
C|-------------------------------------------------------------------|
G|-00-000-000-000-0--------------------------------------------------|
C|-----------------66-666-666-6666633-333-333-333--1~1-111-111-111-1-|

Pre Chorus
F|------------------------------------------------------------------------|
C|------------------------------------------------------------------------|
G|-0003333-----------------------------0003333----------------------------|
C|--------6-66666666-33333333-66666666--------6-6666666-33333333-66666666-|

Chorus 1:14
F|------------------------------------------------------------------|
C|------------------------------------------------------------------|
G|-00~000~000~000~0----------------33-333-333-333-3-----------------|
C|-----------------33~333~333~333~3----------------55~555~555~555~5-|
                                                                        
F|-----------------------------------------------------------------|
C|-----------------------------------------------------------------|
G|-00~000~000~000~0----------------33-333-333-333-3----------------|
C|-----------------33~333~333~333~3----------------555555555-5-5-5-|
                                                                        
Bridge 1:38
F|-------------------------------------------------------|
C|-------------------------------------------------------|
G|-0003333-----------000---------------0~~~~~~~000-------|
C|--------6-66666666----33336-66666666------------333366-|

Breakdown (1:53)
F|------------------------------------------------------------------------|
C|------------------------------------------------------------------------|
G|-0003333-----------000---------------0003333----------000---------------|
C|--------6-66666666----33336-66666666--------6-6666666----33336-66666666-|

F|-----------------------------------------------------------------------------------|
C|-----------------------------------------------------------------------------------|
G|-00--33--------------00------------------00~~33~~-------------00~~-----------------|
C|---------66--22222222----33--66--22222222---------66~~22222222----33~~66~~22222222-|

Chorus 2:25
F|----------------------------------------------------|
C|----------------------------------------------------|
G|-------------------33-333-333333333-----------------|
C|-7\3333333333333333----------------5555555555555555-|

F|------------------------------------------------------------------|-------|
C|------------------------------------------------------------------|-------|
G|-00-000-000000000----------------33-333-333333333-----------------|-------|
C|-----------------3333333333333333----------------5555555555555555-|---7\--|
Tabbed by Dave Vucko
Suggest correction
Give kudos to tab author, rate the tab!
1 2 3 4 5
comments
print report bad tab
guest
You may want to rate the tab now too:
select rating
Please do not post tabs as comments. Select "correction" instead!