Oops, an error
Loading. Please wait.

Im Made Of Wax Larry What Are You Made Of Tab

version 3
version 3
42,993 views 12 this week
no commentswrite comment
1 2 3 4 5
1 last vote to show rating
add to favorites
launch autoscroll
font size
0
reset
how to read this tab
guitar tuner
Autoscroll
slow
fast
+/-
esc
set tempo
stop
Help us to improve Ultimate-Guitar.com Take our survey!
×
----------------------------------------------------------------------------
   I'M Made of Wax, Larry, What Are You Made of? - A Day to Remember
----------------------------------------------------------------------------
Tabbed by: Johnny
Email: Quiksilver6016

Tuning: DADGBE

Intro/Chorus
e|-------------------------------------------------------------------------|
B|-------------------------------------------------------------------------|
G|-----------------3-------------------------------------------------------|
D|-5-------1-------3-(16x)-3-----------------------------------------------|
A|-5-(16x)-1-(16x)-1-------3(16x)------------------------------------------|
E|-5-------1---------------3-----------------------------------------------|

Verse 
e|-------------------------------------------------------------------------|
B|-------------------------------------------------------------------------|
G|---------9-1010x-109-9x----------9-1010x-10-12-12x-33-333-333-333-333----|
D|-88x888x-7-8-8-x-8-7-7x-877x777x-7-8-8-x-8--10-10x-11-111-111-111-111----|
A|-55x555x-7-8-8-x-8-7-7x-544x444x-7-8-8-x-8--10-10x-11-111-111-111-111----|
E|-55x555x-7-8-8-x-8-7-7x-544x444x-7-8-8-x-8--10-10x-11-111-111-111-111----|

e|-------------------------------------------------------------------------|
B|-------------------------------------------------------------------------|
G|-3-55-555-5-22-222-------------------------------------------------------|
D|-1-33-333-3-00-000-------------------------------------------------------|
A|-1-33-333-3-00-000-------------------------------------------------------|
E|-1-33-333-3-00-000-------------------------------------------------------|

Pre-Chorus
e|-------------------------------------------------------------------------|
B|-------------------------------------------------------------------------|
G|-------------------------------------------------------------------------|
D|-555-888-44444444-11111111-44444444-555-888-44444444-11111111-44444444---|
A|-555-888-44444444-11111111-44444444-555-888-44444444-11111111-44444444---|
E|-555-888-44444444-11111111-44444444-555-888-44444444-11111111-44444444---|
                                                                ********
Repeat Chorus        
                                              
e|-------------------------------------------------------------------------|
B|-------------------------------------------------------------------------|
G|-------------------------------------------------------------------------|
D|-55-555-555-5-8^---------------------------------------------------------|
A|-55-555-555-5------------------------------------------------------------|
E|-55-555-555-5------------------------------------------------------------|

Repeat Verse
Repeat Pre-Chorus
Repeat Chorus 2x

Breakdown
e|-------------------------------------------------------------------------|
B|-------------------------------------------------------------------------|
G|-------------------------------------------------------------------------|
D|-555---555---5~-555-8888-4---5555-8888-44444444-5555-1111-44444444-------|
A|-555---555---5~-555-8888-4---5555-8888-44444444-5555-1111-44444444-------|
E|-555---555---5~-555-8888-4---5555-8888-44444444-5555-1111-44444444-------|
                  *** **** *

e|-------------------------------------------------------------------------|
B|-------------------------------------------------------------------------|
G|-------------------------------------------------------------------------|
D|-5555-8888-44444444-5555-1111-44444444-----------------------------------|
A|-5555-8888-44444444-5555-1111-44444444-----------------------------------|
E|-5555-8888-44444444-5555-1111-44444444-5555-8888-4444-0000---------------|

e|-------------------------------------------------------------------------|
B|-------------------------------------------------------------------------|
G|-------------------------------------------------------------------------|
D|---------------------55-88-44-00-0000-55-11-44-00-0000-5-----------------|
A|---------------------55-88-44-00-0000-55-11-44-00-0000-5-----------------|
E|-5555-1111-4444-0000-55-88-44-00-0000-55-11-44-00-0000-5-----------------|
                       ** ** ** ** **** ** ** ** ** ****

Guitar Break/Outro
e|-------------------------------------------------------------------------|
B|-------------------------------------------------------------------------|
G|-------------------------------------------------------------------------|
D|-355-3-5-3-5-355-888-(5)-------------------------------------------------|
A|---------------------(5)-(Only-on-outro)---------------------------------|
E|---------------------(5)-------------------------------------------------|

Repeat Chorus 2x
Repeat Outro


| /  slide up
| \  slide down
| h  hammer-on
| p  pull-off
| *  palm-mute
| ^  pinch harmonic
| x  Mute note
============================================================================
Suggest correction
Give kudos to tab author, rate the tab!
1 2 3 4 5
comments
print report bad tab
guest
You may want to rate the tab now too:
select rating
Wanna post a correction for this tab? Suggest correction