Oops, an error
Loading. Please wait.

Im Made Of Wax Larry What Are You Made Of Bass Tab

version 4
version 4

Whole song

853 views 1 this week
1 commentread comment
1 2 3 4 5
2 more votes to show rating
add to favorites
launch autoscroll
font size
0
reset
guitar tuner
Autoscroll
slow
fast
+/-
esc
set tempo
stop
Help us to improve Ultimate-Guitar.com Take our survey!
×
Author
Difficulty
Song:
I'm Made Of Wax, Larry, What Are You Made Of? (Featuring Mike Hranica of The Devil Wears Prada)
Band: A Day To Remember
Album: Homesick

I took Sebastián's (http://profile.ultimate-guitar.com/Sebasti%E1n/) 4-string 
version brushed it up a little and converted it to use for a 5-string so all credit goes to him

Intro
G:----------------------------------------------------------------------|
D:----------------------------------------------------------------------|
A:------------------------------------1111111111111111------------------|
E:-33333333333333333-----------------------------------1111111111111111-|
B:-------------------4444444444444444-----------------------------------|

Verse 1 (0:11)
G:-----------------------------------------------------|
D:-----------------------------------------------------|
A:----------------------------------------33x33x-------|
E:-33x33x33x33x-22x22x22x22x--------------------55x55x-|
B:---------------------------44x44x44x44x--------------|

Pre Chorus 1 (0:24)
G:--------------------------------------|
D:--------------------------------------|
A:-----1111-----------------------------|
E:-333------22222222-----------22222222-|
B:-------------------444444444----------|

G:--------------------------------------|
D:--------------------------------------|
A:-----1111-----------------------------|
E:-333------22222222-----------22222222-|
B:-------------------444444444----------|

Chorus 1 (0:36)
G:----------------------------------------------------------------------|
D:----------------------------------------------------------------------|
A:------------------------------------1111111111111111------------------|
E:-33333333333333333-----------------------------------1111111111111111-|
B:-------------------4444444444444444-----------------------------------|

(0:47)
G:--------------------|
D:--------------------|
A:-11x111x111x1-------|
E:--------------------|
B:--------------------|

Verse 2 (0:51)
G:-----------------------------------------------------|
D:-----------------------------------------------------|
A:----------------------------------------33x33x-------|
E:-33x33x33x33x-22x22x22x22x--------------------55x55x-|
B:---------------------------44x44x44x44x--------------|

Pre Chorus 2 (1:03)
G:--------------------------------------|
D:--------------------------------------|
A:-----1111-----------------------------|
E:-333------22222222-----------22222222-|
B:-------------------444444444----------|

G:--------------------------------------|
D:--------------------------------------|
A:-----1111-----------------------------|
E:-333------22222222-----------22222222-|
B:-------------------444444444----------|


Chorus 2 (1:15)

G:----------------------------------------------------------------------|
D:----------------------------------------------------------------------|
A:------------------------------------1111111111111111------------------|
E:-33333333333333333-----------------------------------1111111111111111-|
B:-------------------4444444444444444-----------------------------------|

G:----------------------------------------------------------------------|
D:----------------------------------------------------------------------|
A:------------------------------------1111111111111111------------------|
E:-33333333333333333-----------------------------------1111111111111111-|
B:-------------------4444444444444444-----------------------------------|
                                                                        
Bridge (1:39)

G:---------------------------------------|-------------------|
D:---------------------------------------|-------------------| 
A:-----1111------------------------------|-------------------| 
E:-333------222222222-333------222222222-|3~-----333------22-| 
B:------------------------4444-----------|-----------4444----|

Breakdown (1:53)

G:--------------------------------------|
D:--------------------------------------|
A:-----1111-----------------------------|
E:-333------22222222-----------22222222-|
B:-------------------444444444----------|

G:--------------------------------------|
D:--------------------------------------|
A:-----1111-----------------------------|
E:-333------22222222-----------22222222-|
B:-------------------444444444----------|

G:-------------------------------------|
D:-------------------------------------|
A:-----11~-----------------------------|
E:-33~-----22~-------33~-----22~-------|
B:-------------33333-----44~-----33333-|

G:-------------------------------------|
D:-------------------------------------|
A:-----11~-----------------------------|
E:-33~-----22~-------33~-----22~-------|
B:-------------33333-----44~-----33333-|

Chorus 3 (2:23)

G:----------------------------------------------------------------------|
D:----------------------------------------------------------------------|
A:------------------------------------1111111111111111------------------|
E:-----------------------------------------------------1111111111111111-|
B:-------------------4444444444444444-----------------------------------|

G:----------------------------------------------------------------------|
D:----------------------------------------------------------------------|
A:------------------------------------1111111111111111------------------|
E:-33333333333333333-----------------------------------1111111111111111-|
B:-------------------4444444444444444-----------------------------------|

Outro

G:--------------------|
D:-35-35-35-355-88----|
A:--------------------|
E:------------------3-|
B:--------------------|
Suggest correction
Give kudos to tab author, rate the tab!
1 2 3 4 5
comments
print report bad tab
1 comment total.
0 reply
boby9933 57 Aug 02, 2016 07:45 AM

perfect tab, we need more of those 5-string bass tabs

guest
You may want to rate the tab now too:
select rating
Wanna post a correction for this tab? Suggest correction