Oops, an error
Loading. Please wait.

In Florida Bass Tab

85 views 15 this week
no commentswrite comment
1 2 3 4 5
3 more votes to show rating
add to favorites
launch autoscroll
font size
0
reset
guitar tuner
Autoscroll
slow
fast
+/-
esc
set tempo
stop
Help us to improve Ultimate-Guitar.com Take our survey!
×
Author
Difficulty
Tuning
novice
C G C F A D
A Day to Remember - In Florida

Tabbed by: Ash (XxThreeCheersxX)
email: burdickash@gmail.com

Intro
F|---------------------------------------------------------------------|
C|---------------------------------------------------------------------|
G|---------------------------------------------------------------------|
C|-0--0-0----0-0----0--0-0----0-0----4--4-4----4-4----4--4-4----4-4----|

F|---------------------------------------------------------------------|
C|---------------------------------------------------------------------|
G|---------------------------------------------------------------------|
C|-0--0-0----0-0----0--0-0----0-0----4--4-4----4-4----2--2-2----2-2----|

Verse
F|---------------------------------------------------------------------|
C|---------------------------------------------------------------------|
G|---------------------------------------------------------------------|
C|-0--0-0----0-0----0--0-0----0-0----4--4-4----4-4----4--4-4----4-4----|

F|---------------------------------------------------------------------|
C|---------------------------------------------------------------------|
G|---------------------------------------------------------------------|
C|-0--0-0----0-0----0--0-0----0-0----4--4-4----4-4----2--2-2----2-2----|

F|---------------------------------------------------------------------|
C|---------------------------------------------------------------------|
G|---------------------------------------------------------------------|
C|-0--0-0----0-0----0--0-0----0-0----4--4-4----4-4----4--4-4----4-4----|

F|---------------------------------------------------------------------|
C|---------------------------------------------------------------------|
G|---------------------------------------------------------------------|
C|-0--0-0----0-0----0--0-0----0-0----4--4-4----4-4----2-2-2-2-2-2------|

Chorus
F|-----------------------------------------------------|
C|-----------------------------------------------------|
G|-----------------------------------------------------| x 3
C|-0--0-0--0-0--0--0-0--0-0--2--2-2--2-2--4--4-4--4-4--|

F|----------------------------------------|
C|----------------------------------------|
G|----------------------------------------|
C|-0-0----0~----0--0--0--4-4----2~--------|

Verse II (almost the same as before)
F|---------------------------------------------------------------------|
C|---------------------------------------------------------------------|
G|---------------------------------------------------------------------|
C|-0--0-0----0-0----0--0-0----0-0----4--4-4----4-4----4--4-4----4-4----|

F|---------------------------------------------------------------------|
C|---------------------------------------------------------------------|
G|---------------------------------------------------------------------|
C|-0--0-0----0-0----0--0-0----0-0----4--4-4----4-4----2--2-2----2-2----|

F|---------------------------------------------------------------------|
C|---------------------------------------------------------------------|
G|------------------------------------------------------------0-0-0-0--|
C|-0--0-0----0-0----0--0-0----0-0----4--4-4----4-4----4--4-4-----------|

F|------------------------------------------------------------------|
C|------------------------------------------------------------------|
G|------------------------------------------------------------------|
C|-0--0-0----0-0----0--0-0----0-0----4-4-4-4-4-4-4-2-2-2-2-2-2------|

Chorus II
F|-----------------------------------------------------|
C|-----------------------------------------------------|
G|-----------------------------------------------------| x 3
C|-0--0-0--0-0--0--0-0--0-0--2--2-2--2-2--4--4-4--4-4--|

F|--------------------------------------------|
C|--------------------------------------------|
G|--------------------------------------------|
C|-0--0--0--0~----0--0--0--4-4-4----2~--------|

F|--------------------------------------------|
C|----------0~----0--0--0---------------------|
G|--------------------------------------------|
C|-0--0--0-----------------4-4-4----2~--------|

Bridge
F|-------------------------------------------------|
C|-------------------------------------------------|
G|-5--5--5--5--5--5--5--5--2--2--2--2--2--2--2--0--|
C|-------------------------------------------------|

F|-------------------------------------------------|
C|-------------------------------------------------|
G|-5--5--5--5--5--5--5--5--2--2--2--4--5--4--2--0--|
C|-------------------------------------------------|

F|-------------------------------------------------|
C|-------------------------------------------------|
G|-5--5--5--5--5--5--5--5--2--2--2--2--2--2--2--0--|
C|-------------------------------------------------|

F|---------------------------------------------------------|
C|---------------------------------------------------------|
G|5--5--5--5--5--5--5--5---2-2-2-2-2-2-2-2-2-2-2-2-0-0-0-0-|
C|---------------------------------------------------------|

"Can't get back who I was back then"
F|-------------------------------------------------------------------------|
C|-------------------------------------------------------------------------|
G|-5-5-5-5-5-5-5-5----5-5-5-5-5-5-5----2-2-2-2-2-2-2-2----2-2-2-0-0-0-0----| x 2
C|-------------------------------------------------------------------------|

F|-----------------------------------------------------------------|
C|-----------------------------------------------------------------|
G|---------------------------------5-5-5-5-4-4-4-4-7-7-7-7-7-7-7-7-|
C|-0-0-0-0-2-2-2-2-4-4-4-4-7-7-7-7---------------------------------|

Final Chorus
F|-----------------------------------------------------|
C|-----------------------------------------------------|
G|-----------------------------------------------------| 
C|-0~------------------------2~-----------4~------4-4--|

F|-----------------------------------------------------|
C|-----------------------------------------------------|
G|-----------------------------------------------------| x 2
C|-0--0-0--0-0--0--0-0--0-0--2--2-2--2-2--4--4-4--4-4--|

F|--------------------------------------------|
C|--------------------------------------------|
G|--------------------------------------------|
C|-0--0--0--0~----0--0--0--4-4-4----2~--------|

F|--------------------------------------------|
C|-------------------------7--6--4--2~--------|
G|--------------------------------------------|
C|-0--0-----0~----0--0--0---------------------|

Happy playing!!

************************************

| x   Dead note
| g   Grace note
| (n) Ghost note
| h   Hammer-on
| p   Pull-off
| r   Release
| >   Accented note
| t   Tapping
| b   Bend
| br  Bend release
| pb  Pre-bend
| pbr Pre-bend release
| /   Slide up
| \   Slide down
| ~   Vibrato
| s   Slap
| P   Pop
| PM  Palm mute
| TR  Trill
| N   Tremolo

************************************
Suggest correction
Give kudos to tab author, rate the tab!
1 2 3 4 5
comments
print report bad tab
guest
You may want to rate the tab now too:
select rating
Wanna post a correction for this tab? Suggest correction