Oops, an error
Loading. Please wait.

Its Complicated Tab

version 1
version 1

Acoustic

Whole song

Interactive

22,183 views 6 this week
1 commentread comment
1 2 3 4 5
accurate
x 8
add to favorites
launch autoscroll
font size
0
reset
how to read this tab
guitar tuner
Tab Pro tools
  • play this tab
  • loop segment
  • change instrument
  • show fretboard
  • metronome
×
Best way to learn
"Its Complicated"
Autoscroll
slow
fast
+/-
esc
set tempo
stop
Contributor
It's Complicated (Acoustic)
A Day to Remember
From MTV's Buzzworthy (2012)

This is my tab of ADTR's acoustic version of It's Complicated.  It is tabbed out 
the same as the way Kevin Skaff played it on MTV's Buzzworthy, so I hope this 
helps anybody who was trying to learn it! Just listen to the song or watch my 
cover to figure out strumming.

Link to my cover:
http://www.youtube.com/watch?v=FGU0_reyzFQ

Tuning: Drop B (B F# B E G# C#)




Intro/Verse:

C# |----------------------------------------------------------------|
G# |--10---10---10---10---10---10---10---10---10---10---10---10-----|
E  |---7----7----7----7----7----7----7----7----7----7----7----7-----|
B  |-----9----9----9----9----9----9----9----9----9----9----9--------|
F# |----------------------------------------------------------------|
B  |----------------------------------------------------------------|

    -------------------------------------------------------|
    --7---7---8---8---3---3---3---3------------------------|
    --7---7---7---7---2---2---2---2----2---2---2---2-------|
    ----5---5---5---5---4---4---4---4--2-2-2-2-2-2-2-2-----| x2
    -------------------------------------------------------|
    -------------------------------------------------------|

On second time through, second half played like this:

    -----------------------------------------------------------------|
    --7---7---8---8---3---3---3---3----------------------------------|
    --7---7---7---7---2---2---2---2----2---2---2---------------------|
    ----5---5---5---5---4---4---4---4--2-2-2-2-2---------------------|
    -----------------------------------------------4-4-4-4/5-5-5-----|
    -----------------------------------------------------------------|



Pre-chorus:

C# |----------------------------------------------------------------|
G# |--2--3--2------2--3--5--2---2--3--2------5-5-5-5-5-5-5-5-3~-----|
E  |-----------2-------------------------2---2-2-2-2-2-2-2-2-2~-----|
B  |----------------------------------------------------------------| x1
F# |----------------------------------------------------------------|
B  |----------------------------------------------------------------|



Chorus:

C# |------------------------------------------------------------------------------------|
G# |------------------------------------------------------------------------------------|
E  |-----------------------------------------------/4-2---------------------------------|
B  |--7--7--7-7-7-7-7-7-7-7-7-9--9-9-9-9-6-6-6-7-----------7-9--9-11-11/12/11-7/9-7-----| x1
F# |--5--5--5-5-5-5-5-5-7-7-7-7--7-7-7-7-4-4-4-7--------5--7-7--7--9--9/10/-9-5/7-5-----|
B  |--------------------7-7-7------------------7-----------7----------------------------|

------------------------------------------------------------------------------------------------|
---------------------------------------------------------------------------------------10-------|
-----------------------------------------------/4-2----------------------------------7----9-----|
--7--7--7-7-7-7-7-7-7-7-7-9--9-9-9-9-6-6-6-7-----------x-----7---x-------5-5-x-4-4-9------------| x1
--5--5--5-5-5-5-5-5-7-7-7-7--7-7-7-7-4-4-4-7--------5--x-x-x-7---x-x-x-x-5-5-x-4-4--------------|
--------------------7-7-7------------------7-----------x-x-x-7---x-x-x-x-5-5-x-4-4--------------|


*Repeat Intro/Verse*

*Repeat Pre-chorus*

*Repeat Chorus*


Bridge:

C# |---------------------------|
G# |---------------------------|
E  |---------------------------|
B  |--12/11-7-7-7--7-7-7-7-----| x1
F# |--10/-9-5-5-5--5-5-5-5-----|
B  |---------------------------|

    ---------------------------------------|
    ---------------------------------------|
    ---------------------------------------|
    --12-12-12-12-12/11-7-7-7--7-7-7-7-----| x2
    --10-10-10-10-10/-9-5-5-5--5-5-5-5-----|
    ---------------------------------------|

    ---------------------------------------------------------------------------------|
    ----------------------------------2-3-2-----------2-3-2----5-5-5-5-5-5-5-5-5-----|
    ----------------------------------------2---------------2--2-2-2-2-2-2-2-2-2-----|
    --12-12-12-12-12/11-7-7-7-7-6-7-9------------------------------------------------| x1
    --10-10-10-10-10/-9-5-5-5-5-4-5-7------------------------------------------------|
    ---------------------------------------------------------------------------------|



Chorus:

C# |------------------------------------------------------------------------------------|
G# |------------------------------------------------------------------------------------|
E  |-----------------------------------------------/4-2---------------------------------|
B  |--7--7--7-7-7-7-7-7-7-7-7-9--9-9-9-9-6-6-6-7-----------7-9--9-11-11/12/11-7/9-7-----| x1
F# |--5--5--5-5-5-5-5-5-7-7-7-7--7-7-7-7-4-4-4-7--------5--7-7--7--9--9/10/-9-5/7-5-----|
B  |--------------------7-7-7------------------7-----------7----------------------------|
    
    ----------------------------------------------------------------------------------------|
    ----------------------------------------------------------------------------------------|
    -----------------------------------------------/4-2-------------------------------------|
    --7--7--7-7-7-7-7-7-7-7-7-9--9-9-9-9-6-6-6-7-----------7-9--9-11-11/12/11-7/9-7-11~-----| x1
    --5--5--5-5-5-5-5-5-7-7-7-7--7-7-7-7-4-4-4-7--------5--7-7--7--9--9/10/-9-5/7-5--9~-----|
    --------------------7-7-7------------------7-----------7--------------------------------|
comments
print report bad tab
1 comment total.
0 reply
copper431652 wrote on May 5 2012, 09:44 am

Nailed It! :D

Thanks for sharing this one, love it (Y)

Keep up the good work ;)

I want to post or [tab]
guest
You may want to rate the tab now too:
select rating
Please do not post tabs as comments. Select "correction" instead!