Oops, an error
Loading. Please wait.

Its Complicated Tab

version 1
version 1

Whole song

Interactive

58,348 views 57 this week
4 commentsread comments
1 2 3 4 5
x 13
add to favorites
launch autoscroll
font size
0
reset
how to read this tab
guitar tuner
Autoscroll
slow
fast
+/-
esc
set tempo
stop
Help us to improve Ultimate-Guitar.com Take our survey!
×
Author
Tuning
C# G# C# F# A# D#
Tuning: Drop C#

       E  E   E  E   E  E   E  E      E  E   E  E   E  E   E  E   
D#|------------------------------|------------------------------|
A#|--10-----10-----10-----10-----|--10-----10-----10-----10-----|
F#|---7------7------7------7-----|---7------7------7------7-----|
C#|---9------9------9------9-----|---9------9------9------9-----|
G#|------------------------------|------------------------------|
C#|------------------------------|------------------------------|

      E  E   E  E   E  E   E  E      E  E   E  E   E  E   E  E   
D#|------------------------------|------------------------------|
A#|--10-----10-----10-----10-----|--10-----10-----10-----10-----|
F#|---7------7------7------7-----|---7------7------7------7-----|
C#|---9------9------9------9-----|---9------9------9------9-----|
G#|------------------------------|------------------------------|
C#|------------------------------|------------------------------|

     E  E  E  E  E  E  E  E     E  E  E  E  E  E  E  E   
D#|--------------------------|--------------------------|
A#|--8-----8-----8-----8-----|--8-----8-----8-----8-----|
F#|--7-----7-----7-----7-----|--7-----7-----7-----7-----|
C#|--5-----5-----5-----5-----|--5-----5-----5-----5-----|
G#|--------------------------|--------------------------|
C#|--------------------------|--------------------------|

     E  E  E  E  E  E  E  E     E  E  E  E  E  E  E  E   
D#|--------------------------|--------------------------|
A#|--7-----7-----7-----7-----|--7-----7-----7-----7-----|
F#|--7-----7-----7-----7-----|--7-----7-----7-----7-----|
C#|--5-----5-----5-----5-----|--5-----5-----5-----5-----|
G#|--------------------------|--------------------------|
C#|--------------------------|--------------------------|

     E  E  E  E  E  E  E  E     E  E  E  E  E  E  E  E   
D#|--------------------------|--------------------------|
A#|--5-----5-----5-----5-----|--5-----5-----5-----5-----|
F#|--6-----6-----6-----6-----|--6-----6-----6-----6-----|
C#|--7-----7-----7-----7-----|--7-----7-----7-----7-----|
G#|--------------------------|--------------------------|
C#|--------------------------|--------------------------|

      E  E  E  E   E  E  E  E      E  E  E   E   Q     Q     
D#|----------------------------|----------------------------|
A#|--10-----------10-----------|--10--------10--10----10----|
F#|---7------------7-----------|---7---------7---7-----7----|
C#|---9------------9-----------|---9---------9---9-----9----|
G#|----------------------------|----------------------------|
C#|----------------------------|----------------------------|

     E  E  E  E  E  E  E  E     E  E  E  E  Q    Q       E  E  E  E  E  E  E  E   
D#|--------------------------|------------------------|--------------------------|
A#|--8-----------8-----------|--8--------8--8----8----|--7-----------7-----------|
F#|--7-----------7-----------|--7--------7--7----7----|--7-----------7-----------|
C#|--5-----------5-----------|--5--------5--5----5----|--5-----------5-----------|
G#|--------------------------|------------------------|--------------------------|
C#|--------------------------|------------------------|--------------------------|

     E  E  E  E  Q    Q       E  E  E  E  E  E  E  E   
D#|------------------------|--------------------------|
A#|--7--------7--7----7----|--5-----------5-----------|
F#|--7--------7--7----7----|--6-----------6-----------|
C#|--5--------5--5----5----|--7-----------7-----------|
G#|------------------------|--------------------------|
C#|------------------------|--------------------------|
    
D#|----------------------|
A#|----------------------|
F#|--\\\\pickslide\\\----|
C#|----------------------|
G#|----------------------|
C#|----------------------|

     Q.     Q.     Q       E  H.           E     Q.     Q.     Q     
D#|---------------------|---------------------|---------------------|
A#|---------------------|---------------------|---------------------|
F#|--4------7------6----|--L--2------------L--|--6------7------9----|
C#|---------------------|---------------------|---------------------|
G#|--2------5------4----|--L--0------------L--|--4------5------7----|
C#|---------------------|---------------------|---------------------|

     E  H.           E     Q.     Q.     Q       E  H.           E   
D#|---------------------|---------------------|---------------------|
A#|---------------------|---------------------|---------------------|
F#|--L--6------------L--|--4------7------6----|--L--2------------L--|
C#|---------------------|---------------------|---------------------|
G#|--L--4------------L--|--2------5------4----|--L--0------------L--|
C#|---------------------|---------------------|---------------------|

     E  E  E  E  E  E  E  E     H         H            E  E  E  E  E  E  E  E   
D#|--------------------------|----------------------|--------------------------|
A#|--------------------------|----------------------|--------------------------|
F#|--------------------------|----------------------|--------------------------|
C#|--------------------------|----------------------|--------------------------|
G#|--7--7--7--7--7--7--7--7--|--5--------12\--------|--0--0--0--0--0--0--0--0--|
C#|--7--7--7--7--7--7--7--7--|--5--------12\--------|--0--0--0--0--0--0--0--0--|

     E  E  E  E  E  E  E  E     E  E  E  E  E  E  E  E   
D#|--------------------------|--------------------------|
A#|--------------------------|--------------------------|
F#|--------------------------|--------------------------|
C#|--------------------------|--------------------------|
G#|--0--0--0--0--0--0--0--0--|--7--7--7--7--7--7--7--7--|
C#|--0--0--0--0--0--0--0--0--|--7--7--7--7--7--7--7--7--|

     E  E  E  E  E  E  E  E     E  E  E  E  E  E  E  E   
D#|--------------------------|--------------------------|
A#|--------------------------|--------------------------|
F#|--------------------------|--------------------------|
C#|--------------------------|--------------------------|
G#|--7--7--7--7--7--7--7--7--|--9--9--9--9--9--9--9--9--|
C#|--7--7--7--7--7--7--7--7--|--9--9--9--9--9--9--9--9--|

     E  E  E  E  E  E  E  E     E  E  E  E  E  E  E  E   
D#|--------------------------|--------------------------|
A#|--------------------------|--------------------------|
F#|--------------------------|--------------------------|
C#|--------------------------|--------------------------|
G#|--9--9--9--9--9--9--9--9--|--7--7--7--7--7--7--7--7--|
C#|--9--9--9--9--9--9--9--9--|--7--7--7--7--7--7--7--7--|

     E  E  E  E  E  E  E  E     E  E  E  E  E  E  E  E   
D#|--------------------------|--------------------------|
A#|--------------------------|--------------------------|
F#|--------------------------|--------------------------|
C#|--------------------------|--------------------------|
G#|--5--5--5--5--5--5--5--5--|--0--0--0--0--0--0--0--0--|
C#|--5--5--5--5--5--5--5--5--|--0--0--0--0--0--0--0--0--|

     E  E  E  E  E  E  E  E     E  E  E  E  E  E  E  E   
D#|--------------------------|--------------------------|
A#|--------------------------|--------------------------|
F#|--------------------------|--------------------------|
C#|--------------------------|--------------------------|
G#|--0--0--0--0--0--0--0--0--|--7--7--7--7--7--7--7--7--|
C#|--0--0--0--0--0--0--0--0--|--7--7--7--7--7--7--7--7--|

     E  E  E  E  E  E  E  E     E  E  E  E  E  E  E  E   
D#|--------------------------|--------------------------|
A#|--------------------------|--------------------------|
F#|--------------------------|--------------------------|
C#|--------------------------|--------------------------|
G#|--7--7--7--7--7--7--7--7--|--9--9--9--9--9--9--9--9--|
C#|--7--7--7--7--7--7--7--7--|--9--9--9--9--9--9--9--9--|

                                                           PM        PM         
     E  E  E  E  E  E  E  E     E  E  E  E  E  E  E  E     E  Q.     E  Q.      
D#|--------------------------|--------------------------|----------------------|
A#|--------------------------|--------------------------|----------------------|
F#|--------------------------|--------------------------|----------------------|
C#|--------------------------|--------------------------|----------------------|
G#|--9--9--9--9--9--9--9--9--|--7-----------------------|--0--5------0--5------|
C#|--9--9--9--9--9--9--9--9--|--7-----------------------|--0--5------0--4------|

      E  E   E  E   E  E   E  E      E  E   E  E   E  E   E  E   
D#|------------------------------|------------------------------|
A#|--10-----10-----10-----10-----|--10-----10-----10-----10-----|
F#|---7------7------7------7-----|---7------7------7------7-----|
C#|---9------9------9------9-----|---9------9------9------9-----|
G#|------------------------------|------------------------------|
C#|------------------------------|------------------------------|

      E  E   E  E   E  E   E  E     E  E  E  E  E  E  E  E   
D#|------------------------------|--------------------------|
A#|--10-----10-----10-----10-----|--8-----8-----8-----8-----|
F#|---7------7------7------7-----|--7-----7-----7-----7-----|
C#|---9------9------9------9-----|--5-----5-----5-----5-----|
G#|------------------------------|--------------------------|
C#|------------------------------|--------------------------|

     E  E  E  E  E  E  E  E     E  E  E  E  E  E  E  E   
D#|--------------------------|--------------------------|
A#|--8-----8-----8-----8-----|--7-----7-----7-----7-----|
F#|--7-----7-----7-----7-----|--7-----7-----7-----7-----|
C#|--5-----5-----5-----5-----|--5-----5-----5-----5-----|
G#|--------------------------|--------------------------|
C#|--------------------------|--------------------------|

     E  E  E  E  E  E  E  E     E  E  E  E  E  E  E  E   
D#|--------------------------|--------------------------|
A#|--7-----7-----7-----7-----|--5-----5-----5-----5-----|
F#|--7-----7-----7-----7-----|--6-----6-----6-----6-----|
C#|--5-----5-----5-----5-----|--7-----7-----7-----7-----|
G#|--------------------------|--------------------------|
C#|--------------------------|--------------------------|

     E  E  E  E  E  E  E  E      E  E  E  E   E  E  E  E   
D#|--------------------------|----------------------------|
A#|--5-----5-----5-----5-----|--10-----------10-----------|
F#|--6-----6-----6-----6-----|---7------------7-----------|
C#|--7-----7-----7-----7-----|---9------------9-----------|
G#|--------------------------|----------------------------|
C#|--------------------------|----------------------------|

      E  E  E   E   Q     Q       E  E  E  E  E  E  E  E   
D#|----------------------------|--------------------------|
A#|--10--------10--10----10----|--8-----------8-----------|
F#|---7---------7---7-----7----|--7-----------7-----------|
C#|---9---------9---9-----9----|--5-----------5-----------|
G#|----------------------------|--------------------------|
C#|----------------------------|--------------------------|

     E  E  E  E  Q    Q       E  E  E  E  E  E  E  E     E  E  E  E  Q    Q     
D#|------------------------|--------------------------|------------------------|
A#|--8--------8--8----8----|--7-----------7-----------|--7--------7--7----7----|
F#|--7--------7--7----7----|--7-----------7-----------|--7--------7--7----7----|
C#|--5--------5--5----5----|--5-----------5-----------|--5--------5--5----5----|
G#|------------------------|--------------------------|------------------------|
C#|------------------------|--------------------------|------------------------|

     E  E  E  E  E  E  E  E   
D#|--------------------------|
A#|--5-----------5-----------|
F#|--6-----------6-----------|
C#|--7-----------7-----------|
G#|--------------------------|
C#|--------------------------|

D#|----------------------|
A#|----------------------|
F#|---\\\pickslide\\\----|
C#|----------------------|
G#|----------------------|
C#|----------------------|

     Q.     Q.     Q       E  H.           E     Q.     Q.     Q     
D#|---------------------|---------------------|---------------------|
A#|---------------------|---------------------|---------------------|
F#|--4------7------6----|--L--2------------L--|--6------7------9----|
C#|---------------------|---------------------|---------------------|
G#|--2------5------4----|--L--0------------L--|--4------5------7----|
C#|---------------------|---------------------|---------------------|

     E  H.           E     Q.     Q.     Q       E  H.           E   
D#|---------------------|---------------------|---------------------|
A#|---------------------|---------------------|---------------------|
F#|--L--6------------L--|--4------7------6----|--L--2------------L--|
C#|---------------------|---------------------|---------------------|
G#|--L--4------------L--|--2------5------4----|--L--0------------L--|
C#|---------------------|---------------------|---------------------|

     E  E  E  E  E  E  E  E     H         H            E  E  E  E  E  E  E  E   
D#|--------------------------|----------------------|--------------------------|
A#|--------------------------|----------------------|--------------------------|
F#|--------------------------|----------------------|--------------------------|
C#|--------------------------|----------------------|--------------------------|
G#|--7--7--7--7--7--7--7--7--|--5--------12\--------|--0--0--0--0--0--0--0--0--|
C#|--7--7--7--7--7--7--7--7--|--5--------12\--------|--0--0--0--0--0--0--0--0--|

     E  E  E  E  E  E  E  E     E  E  E  E  E  E  E  E   
D#|--------------------------|--------------------------|
A#|--------------------------|--------------------------|
F#|--------------------------|--------------------------|
C#|--------------------------|--------------------------|
G#|--0--0--0--0--0--0--0--0--|--7--7--7--7--7--7--7--7--|
C#|--0--0--0--0--0--0--0--0--|--7--7--7--7--7--7--7--7--|

     E  E  E  E  E  E  E  E     E  E  E  E  E  E  E  E   
D#|--------------------------|--------------------------|
A#|--------------------------|--------------------------|
F#|--------------------------|--------------------------|
C#|--------------------------|--------------------------|
G#|--7--7--7--7--7--7--7--7--|--9--9--9--9--9--9--9--9--|
C#|--7--7--7--7--7--7--7--7--|--9--9--9--9--9--9--9--9--|

     E  E  E  E  E  E  E  E     E  E  E  E  E  E  E  E   
D#|--------------------------|--------------------------|
A#|--------------------------|--------------------------|
F#|--------------------------|--------------------------|
C#|--------------------------|--------------------------|
G#|--9--9--9--9--9--9--9--9--|--7--7--7--7--7--7--7--7--|
C#|--9--9--9--9--9--9--9--9--|--7--7--7--7--7--7--7--7--|

     E  E  E  E  E  E  E  E     E  E  E  E  E  E  E  E   
D#|--------------------------|--------------------------|
A#|--------------------------|--------------------------|
F#|--------------------------|--------------------------|
C#|--------------------------|--------------------------|
G#|--5--5--5--5--5--5--5--5--|--0--0--0--0--0--0--0--0--|
C#|--5--5--5--5--5--5--5--5--|--0--0--0--0--0--0--0--0--|

     E  E  E  E  E  E  E  E     E  E  E  E  E  E  E  E   
D#|--------------------------|--------------------------|
A#|--------------------------|--------------------------|
F#|--------------------------|--------------------------|
C#|--------------------------|--------------------------|
G#|--0--0--0--0--0--0--0--0--|--7--7--7--7--7--7--7--7--|
C#|--0--0--0--0--0--0--0--0--|--7--7--7--7--7--7--7--7--|

     E  E  E  E  E  E  E  E     E  E  E  E  E  E  E  E   
D#|--------------------------|--------------------------|
A#|--------------------------|--------------------------|
F#|--------------------------|--------------------------|
C#|--------------------------|--------------------------|
G#|--7--7--7--7--7--7--7--7--|--9--9--9--9--9--9--9--9--|
C#|--7--7--7--7--7--7--7--7--|--9--9--9--9--9--9--9--9--|

                                                           PM        PM         
     E  E  E  E  E  E  E  E     E  E  E  E  E  E  E  E     E  Q.     E  Q.      
D#|--------------------------|--------------------------|----------------------|
A#|--------------------------|--------------------------|----------------------|
F#|--------------------------|--------------------------|----------------------|
C#|--------------------------|--------------------------|----------------------|
G#|--9--9--9--9--9--9--9--9--|--7-----------------------|--0--5------0--5------|
C#|--9--9--9--9--9--9--9--9--|--7-----------------------|--0--5------0--4------|

     E  E  E  E  E  E  E  E     E  E  E  E  E  E  E  E   
D#|--------------------------|--------------------------|
A#|--------------------------|--------------------------|
F#|--------------------------|--------------------------|
C#|--------------------------|--------------------------|
G#|--0--0-----0--0-----0--0--|-----0--0-----5--5--5--5--|
C#|--0--0-----0--0-----0--0--|-----0--0-----5--5--5--5--|

     E  E  E  E  E  E  E  E     E  E  E  E  E  E  E  E   
D#|--------------------------|--------------------------|
A#|--------------------------|--------------------------|
F#|--------------------------|--------------------------|
C#|--------------------------|--------------------------|
G#|--5--4--0-----0--0-----0--|--0-----0--0-----5--5--5--|
C#|--5--4--0-----0--0-----0--|--0-----0--0-----5--5--5--|

     E  E  E  E  E  E  E  E     E  E  E  E  E  E  E  E   
D#|--------------------------|--------------------------|
A#|--------------------------|--------------------------|
F#|--------------------------|--------------------------|
C#|--------------------------|--------------------------|
G#|--5--4--0-----0--0-----0--|--0-----0--0-----5--5--5--|
C#|--5--4--0-----0--0-----0--|--0-----0--0-----5--5--5--|

                                                           PM PM PM   PM PM   PM  
     E  E  E  E  E  E  E  E     E  E  E  E  E  E  E  E     E  E  Q    E  Q    E   
D#|--------------------------|--------------------------|------------------------|
A#|--------------------------|--------------------------|------------------------|
F#|--------------------------|--------------------------|------------------------|
C#|--------------------------|--------------------------|------------------------|
G#|--5--4--0-----0--0-----0--|--0-----------------------|--5--4--0----0--0----0--|
C#|--5--4--0-----0--0-----0--|--0-----------------------|--5--4--0----0--0----0--|

     PM   PM PM   PM PM PM PM    PM PM PM   PM PM   PM    PM   PM PM   PM PM PM  
     Q    E  Q    S  S  E  E     E  E  Q    E  Q    E     Q    E  Q    E  E  E   
D#|---------------------------|------------------------|------------------------|
A#|---------------------------|------------------------|------------------------|
F#|---------------------------|------------------------|------------------------|
C#|---------------------------|------------------------|------------------------|
G#|--0----0--0----5--5--5--5--|--5--4--0----0--0----0--|--0----0--0----0--0--0--|
C#|--0----0--0----5--5--5--5--|--5--4--0----0--0----0--|--0----0--0----0--0--0--|

     PM PM PM   PM PM   PM    PM   PM PM   PM PM PM PM    PM PM PM   PM PM   PM  
     E  E  Q    E  Q    E     Q    E  Q    S  S  E  E     E  E  Q    E  Q    E   
D#|------------------------|---------------------------|------------------------|
A#|------------------------|---------------------------|------------------------|
F#|------------------------|---------------------------|------------------------|
C#|------------------------|---------------------------|------------------------|
G#|--5--4--0----0--0----0--|--0----0--0----5--5--5--5--|--5--4--0----0--0----0--|
C#|--5--4--0----0--0----0--|--0----0--0----5--5--5--5--|--5--4--0----0--0----0--|

     Q.     Q.     Q       W                   W                 
D#|---------------------|-------------------|-------------------|
A#|---------------------|-------------------|-------------------|
F#|---------------------|-------------------|-------------------|
C#|--7------7------9----|-------------------|-------------------|
G#|--4------5------7----|--5----------------|--L----------------|
C#|---------------------|--5----------------|--L----------------|

     W                   W                   W                   W                 
D#|-------------------|-------------------|-------------------|-------------------|
A#|-------------------|-------------------|-------------------|-------------------|
F#|-------------------|-------------------|-------------------|-------------------|
C#|-------------------|-------------------|-------------------|-------------------|
G#|--7----------------|--L----------------|--9----------------|--L----------------|
C#|--7----------------|--L----------------|--9----------------|--L----------------|

     W                   W                   E  E  E  E  E  E  E  E   
D#|-------------------|-------------------|--------------------------|
A#|-------------------|-------------------|--------------------------|
F#|-------------------|-------------------|--------------------------|
C#|-------------------|-------------------|--------------------------|
G#|--7----------------|-------------------|--0--0--0--0--0--0--0--0--|
C#|--7----------------|-------------------|--0--0--0--0--0--0--0--0--|

     E  E  E  E  E  E  E  E     E  E  E  E  E  E  E  E   
D#|--------------------------|--------------------------|
A#|--------------------------|--------------------------|
F#|--------------------------|--------------------------|
C#|--------------------------|--------------------------|
G#|--0--0--0--0--0--0--0--0--|--7--7--7--7--7--7--7--7--|
C#|--0--0--0--0--0--0--0--0--|--7--7--7--7--7--7--7--7--|

     E  E  E  E  E  E  E  E     E  E  E  E  E  E  E  E   
D#|--------------------------|--------------------------|
A#|--------------------------|--------------------------|
F#|--------------------------|--------------------------|
C#|--------------------------|--------------------------|
G#|--7--7--7--7--7--7--7--7--|--9--9--9--9--9--9--9--9--|
C#|--7--7--7--7--7--7--7--7--|--9--9--9--9--9--9--9--9--|

     E  E  E  E  E  E  E  E     E  E  E  E  E  E  E  E   
D#|--------------------------|--------------------------|
A#|--------------------------|--------------------------|
F#|--------------------------|--------------------------|
C#|--------------------------|--------------------------|
G#|--9--9--9--9--9--9--9--9--|--7--7--7--7--7--7--7--7--|
C#|--9--9--9--9--9--9--9--9--|--7--7--7--7--7--7--7--7--|

     E  E  E  E  E  E  E  E     E  E  E  E  E  E  E  E   
D#|--------------------------|--------------------------|
A#|--------------------------|--------------------------|
F#|--------------------------|--------------------------|
C#|--------------------------|--------------------------|
G#|--5--5--5--5--5--5--5--5--|--0--0--0--0--0--0--0--0--|
C#|--5--5--5--5--5--5--5--5--|--0--0--0--0--0--0--0--0--|

     E  E  E  E  E  E  E  E     E  E  E  E  E  E  E  E   
D#|--------------------------|--------------------------|
A#|--------------------------|--------------------------|
F#|--------------------------|--------------------------|
C#|--------------------------|--------------------------|
G#|--0--0--0--0--0--0--0--0--|--7--7--7--7--7--7--7--7--|
C#|--0--0--0--0--0--0--0--0--|--7--7--7--7--7--7--7--7--|

     E  E  E  E  E  E  E  E     E  E  E  E  E  E  E  E   
D#|--------------------------|--------------------------|
A#|--------------------------|--------------------------|
F#|--------------------------|--------------------------|
C#|--------------------------|--------------------------|
G#|--7--7--7--7--7--7--7--7--|--9--9--9--9--9--9--9--9--|
C#|--7--7--7--7--7--7--7--7--|--9--9--9--9--9--9--9--9--|

     E  E  E  E  E  E  E  E     E  E  E  E  E  E  E  E   
D#|--------------------------|--------------------------|
A#|--------------------------|--------------------------|
F#|--------------------------|--------------------------|
C#|--------------------------|--------------------------|
G#|--9--9--9--9--9--9--9--9--|--7--7--7--7--7--7--7--7--|
C#|--9--9--9--9--9--9--9--9--|--7--7--7--7--7--7--7--7--|

     E  E  E  E  E  E  E  E     W                   W                 
D#|--------------------------|-------------------|-------------------|
A#|--------------------------|-------------------|-------------------|
F#|--------------------------|-------------------|-------------------|
C#|--------------------------|-------------------|-------------------|
G#|--5--5--5--5--5--5--5--5--|--0----------------|--L----------------|
C#|--5--5--5--5--5--5--5--5--|--0----------------|--L----------------|

     W                   W                  
D#|-------------------|-------------------|
A#|-------------------|-------------------|
F#|-------------------|-------------------|
C#|-------------------|-------------------|
G#|--L----------------|--L----------------|
C#|--L----------------|--L----------------|


************************************

| \   Slide down
| PM  Palm mute

************************************
Suggest correction
comments
print report bad tab
4 comments total. Showing first comments.
0 reply
GibsonBlack 10 Jan 06, 2011 06:54 PM

the octaves for after the breakdown in case someone couldn't figure it out =P

|------------------------------------|
|------------------------------------|
|--4--7--6--2~--4--7--6--2--4--6--7--|
|------------------------------------|
|--2--5--4--0~--2--5--4--0--2--4--5--|
|------------------------------------|

0 reply
ItsDropDNick 474 Jan 06, 2011 11:54 PM

hah. nice one dude. I couldn't be bothered with that bit :')

0 reply
bb155558 41 Jan 09, 2011 04:40 PM

nice job, a cool song by ADTR so thank u for tabbing, i tried to get better off this way up but they rejected it for some reason

guest
You may want to rate the tab now too:
select rating
Wanna post a correction for this tab? Suggest correction