Oops, an error
Loading. Please wait.

Its Complicated Bass

version 2
version 2

Whole song

Interactive

9,207 views 3 this week
1 commentread comment
1 2 3 4 5
x 6
add to favorites
launch autoscroll
font size
0
reset
guitar tuner
×
Best way to learn
"Its Complicated"
Autoscroll
slow
fast
+/-
esc
set tempo
stop
Author
Difficulty
Tuning
  follow
novice
C# G# C# F#
Song: It's Complicated
Artist: A Day To Remember

Tabbed By : AdamJB
e-mail: bassist96@gmail.com

This is my first tab, hope you like it.

Tuning: Drop C#/Drop Db

(0:02)
Gb|---------------------------------------------------------------------------|
Db|---------------------------------------------------------------------------|
Ab|-2-2-2-22-------------------0-0-0-00--2-2-2-22-------------------0-0-0-00--|
Db|----------5-5-5-55-0-0-0-00--------------------5-5-5-55-0-0-0-00-----------|

Gb|---------------------------------------|
Db|---------------------------------------|
Ab|----------00000000-22222222-00000000---|
Db|-55555555----------------------------5\|

Gb|-----------------------------------------------------------|
Db|-----------------------------------------------------------|
Ab|----------00000000-22222222-00000000----------------(00---)|
Db|-00000000----------------------------(55555555)-----(---55)|
					^First time   ^Second Time

(0:53)
Gb|---------------------------------------------------------------------------|
Db|---------------------------------------------------------------------------|
Ab|-2-2-2-22-------------------0-0-0-00--2-2-2-22-------------------0-0-0-00--|
Db|----------5-5-5-55-0-0-0-00--------------------5-5-5-55-0-0-0-00-----------|

Gb|---------------------------------------|
Db|---------------------------------------|
Ab|----------00000000-22222222-00000000---|
Db|-55555555----------------------------5\|

Gb|-----------------------------------------------------------|
Db|-----------------------------------------------------------|
Ab|----------00000000-22222222-00000000----------------(00---)|
Db|-00000000----------------------------(55555555)-----(---55)|
					^First time   ^Second Time

(1:42)
Gb|---------------------------------------------------------------------------|
Db|---------------------------------------------------------------------------|
Ab|---------------------------------------------------------------------------|
Db|-0-0--0-0--0-0--0-0--0-5-5-5--5-4-0--0-0--0-0--0-0--5-5-5------------------|

Gb|-----------------------------------------------------|
Db|-----------------------------------------------------|
Ab|-----------------------------------------------------|
Db|-5-4-0--0-0--0-0--0-0--5-5-5--5-4-0--0-0--0-0--------|

(1:52)

Gb|--------------------------------------------------------------|
Db|--------------------------------------------------------------|
Ab|--------------------------------------------------------------|
Db|-5-4-0--0-0--0-0--0-0--5-5-5--5---5-4-0--0-0--0-0--0-0--0-0-0-|

Gb|------------------------------------------------------|
Db|------------------------------------------------------|
Ab|------------------------------------------------4-5-7-|
Db|-5-4-0--0-0--0-0--0-0--5-5-5--5---5-4-0--0-0--0-------|

(2:02)
Gb|------------------------------|
Db|(5~)---(7~)----(9~)----(7~)---|
Ab|------------------------------|
Db|-5~-----7~------9~------7~----|

Gb|-----------------------------------------------|
Db|-----------------------------------------------|
Ab|----------00000000-22222222-00000000-----------|
Db|-00000000----------------------------55555555--|

Gb|-------------------------------------------------|
Db|-------------------------------------------------|
Ab|----------00000000-22222222-00000000-------------|
Db|-00000000----------------------------55555555-0~-|

| /  slide up
| \  slide down
| h  hammer-on
| p  pull-off
| ~  vibrato
| +  harmonic
| x  Mute note
===============================================================================
Suggest correction
comments
print report bad tab
1 comment total.
0 reply
gunningmad 10 Sep 20, 2014 03:23 PM

Lack of formatting. The pre-chorus and chorus have unclear timing tabbed in. It's hard to tell what goes where when playing along with the song.

guest
You may want to rate the tab now too:
select rating
Wanna post a correction for this tab? Suggest correction