Oops, an error
Loading. Please wait.

Justified Bass Tab

version 1
version 1

Whole song

Interactive

517 views 9 this week
no commentswrite comment
1 2 3 4 5
x 3
add to favorites
launch autoscroll
font size
0
reset
guitar tuner
Autoscroll
slow
fast
+/-
esc
set tempo
stop
Help us to improve Ultimate-Guitar.com Take our survey!
×
Author
Difficulty
Tuning
novice
C G C F A D
A Day to Remember - Justified 

Tabbed by: Ash (XxThreeCheersxX)
email: burdickash@gmail.com

Tuning: CGCF

Intro (no bass)

Chorus x 2
F|-----------------------------------------------------------------|
C|-----------------------------------------------------------------|
G|-------------------------------------------------1-1-1-1-1-1-1-1-|
C|-3-3-3-3-3-3-3-3-3-3-3-3-5-5-5-5-0-0-0-0-0-0-0-0-----------------|

Post-Chorus
F|-----------------------------------------------------------------|
C|-----------------------------------------------------------------|
G|-5-5-5-5-5-0-0-0-1-1-1-1-3-3-3-3-5-5-5-5-5-0-0-0-1-1-1-1-1-1-1-1-|
C|-----------------------------------------------------------------|

F|-------------------------------------------------------------------------------|
C|-------------------------------------------------------------------------------|
G|-5-5-5-5-5-0-0-0-1-1-1-1-3-3-3-3-----------------------------------------------|
C|---------------------------------3-3-3-3-3-3-3-3-3-5-5-5-5-5-5-0-0-0-0-0-0-0-0-|

Breakdown (I tabbed the rhythm as best as I could)
F|---------------------------------------------|
C|---------------------------------------------|
G|---------------------------------1---1---1---|
C|-0--0-0-0--0-0-0-0--0-0-0--0-0-0-------------|

F|---------------------------------------------|
C|---------------------------------------------|
G|---------------------------------------------|
C|-0--0-0-0--0-0-0-0--0-0-0--0-0-0-1---4---3---|

F|---------------------------------------------|
C|---------------------------------------------|
G|---------------------------------1---1---1---|
C|-0--0-0-0--0-0-0-0--0-0-0--0-0-0-------------|

F|---------------------------------------------------|
C|---------------------------------------------------|
G|---------------------------------------------------|
C|-0--0-0-0--0-0-0-0--0-0-0--5--5--5--5--8--8--8--8--|

Chorus x 2

Post-Chorus 

Breakdown II
F|-------------------------------------------------|
C|-------------------------------------------------|
G|-------------------------------------------------| x 2
C|-0--0-0-0-0--0--0-0-0-0--0--0-0-0-0--1---1---1---|

F|-----------------------------------------------------------------------------------------|
C|-----------------------------------------------------------------------------------------|
G|-----------------------------------------------------------------------------------------|
C|-0----0-----0---0-0-0-0--0--0-0-0-0--0--0-0-0-0--0--0-0-0-0--0--0-0-0-0--1---1---1--1----|

F|-------------------------------------------------------------------------------------|
C|-------------------------------------------------------------------------------------|
G|-------------------------------------------------------------------------------------|
C|-0--0-0-0--0-0-0--0--0-0--0--0--1---1---1--0--0-0-0--0-0-0--0--0-0--0--0--1---4---3--|

F|-----------------------------------------------------------------------------------|
C|-----------------------------------------------------------------------------------|
G|-----------------------------------------------------------------------------------|
C|-0--0-0-0--0-0-0--0--0-0--0--0--1---1---1--0--0-0-0--0-0-0--0--5~--------8~--------|

Bridge
F|---------------------------------------|
C|-3~--------5~--------------------------|
G|---------------------5~----------------|
C|---------------------------------------|

F|------------------------------3~------|
C|-3~--------5~-------------------------|
G|---------------------5~---------------|
C|--------------------------------------|

F|---------------------------------------|
C|-3~--------5~--------------------------|
G|---------------------5~----------5-5-5-|
C|---------------------------------------|

F|-----------------------------------------------------------------|
C|-----------------------------------------------------------------|
G|-----------------------------------------------------------------|
C|-3-3-3-3-3-3-3-3-3-3-3-3-3-3-3-3-5-5-5-5-5-5-5-5-5-5-5-5-5-5-5-5-|

F|-----------------------------------------------------------------|
C|-----------------------------------------------------------------|
G|-------------------------3-3-3-3-1-1-1-1-1-1-1-1-1-1-1-1-1-1-1-1-|
C|-0-0-0-0-0-0-0-0-0-0-0-0-----------------------------------------|

F|-----------------------------------------------------------------|
C|-3-3-3-3-3-3-3-3-3-3-3-3-3-3-3-3-5-5-5-5-5-5-5-5-5-5-5-5-7-7-7-7-|
G|-----------------------------------------------------------------|
C|-----------------------------------------------------------------|

F|-----------------------------------------------------------------|
C|-------------------------3-3-3-3---------------------------------|
G|-5-5-5-5-5-5-5-5-5-5-5-5---------1-1-1-1-1-1-1-1-1-1-1-1-1-1-1-1-|
C|-----------------------------------------------------------------|

Outro (no bass)

Happy playing!

************************************

| x   Dead note
| g   Grace note
| (n) Ghost note
| h   Hammer-on
| p   Pull-off
| r   Release
| >   Accented note
| t   Tapping
| b   Bend
| br  Bend release
| pb  Pre-bend
| pbr Pre-bend release
| /   Slide up
| \   Slide down
| ~   Vibrato
| s   Slap
| P   Pop
| PM  Palm mute
| TR  Trill
| N   Tremolo

************************************
Suggest correction
Give kudos to tab author, rate the tab!
1 2 3 4 5
comments
print report bad tab
guest
You may want to rate the tab now too:
select rating
Wanna post a correction for this tab? Suggest correction