Oops, an error
Loading. Please wait.

Justified Tab

version 1
version 1

Whole song

Interactive

301 views 30 this week
no commentswrite comment
1 2 3 4 5
3 more votes to show rating
add to favorites
launch autoscroll
font size
0
reset
how to read this tab
guitar tuner
Autoscroll
slow
fast
+/-
esc
set tempo
stop
Help us to improve Ultimate-Guitar.com Take our survey!
×
Author
Difficulty
Tuning
intermediate
C G C F A D
Tabbed by: Joshua Garcia (joshuag523@aol.com)

Tabs for the song: Justified by A Day To Remember
Please rate and let me know if you have any corrections. Thank you.


To view my guitar cover of this song, go here:
https://youtu.be/Ar-_EhqaupQ


Tuning: Drop C (C G C F A D)


[Intro]
Guitar 1:
D||----------------------------|----------------------------|
A||----------------------------|----------------------------|
F||------------10~--------10~--|------------10~--------10~--|
C||--7~--------8~---------7~---|--7~--------8~---------7~---|
G||--3~--------5~---------0~---|--3~--------5~---------0~---|
C||--3~--------5~---------0~---|--3~--------5~---------0~---|


D||----------------------------|----------------------------|
A||----------------------------|----------------------------|
F||------------10~--------10~--|------------10~--------10~--|
C||--7~--------8~---------7~---|--7~--------8~---------7~---|
G||--3~--------5~---------0~---|--3~--------5~---------0~---|
C||--3~--------5~---------0~---|--3~--------5~---------0~---|


Guitar 2:
D||-----------------|
A||-----------------|
F||-----------------|
C||--0~--------12\--| (Fade in)
G||--0~--------12\--|
C||--0~--------12\--|



[Chorus]
Guitar 1/2:
D||-------------------------------------------------|
A||----------------6---------6------6---------------|
F||----------------5---------5------5---------------|
C||--3--x-x-3--x-x---3--x-x-------3----x-x----7--8--|
G||--3--x-x-3--x-x---3--x-x-------3----x-x----------|
C||--3--x-x-3--x-x---3--x-x-------3----x-x-5--------|


D||--------------------------------------------------------|
A||----------------------------11---11---11---10-10-10-10--|
F||----------------------------10---10---10---10-10-10-10--|
C||--0--x-x-0--x-x-0-0--x-x-0------------------------------| [x2]
G||--0--x-x-0--x-x-0-0--x-x-0------------------------------|
C||--0--x-x-0--x-x-0-0--x-x-0------------------------------|



[Pre-Verse]
Guitar 1:
D||--------8-------8-----------5-----5------|--------8-------8-----------5-----5------|
A||-----10------10------10---6-----6-----6--|-----10------10------10---6-----6-----6--|
F||--10------10------10----7-----7-----7----|--10------10------10----7-----7-----7----|
C||-----------------------------------------|-----------------------------------------|
G||-----------------------------------------|-----------------------------------------|
C||-----------------------------------------|-----------------------------------------|


D||--------8-------8-----------5-----5------|---------------------------------------------------|
A||-----10------10------10---6-----6-----6--|---------------------------------------------------|
F||--10------10------10----7-----7-----7----|---------------------------------------------------|
C||-----------------------------------------|--7-7-7-7-7-7-7-7-7-8-8-8-8-8-8-8-7-7-7-7-7-7-7-7--|
G||-----------------------------------------|--3-3-3-3-3-3-3-3-3-5-5-5-5-5-5-5-0-0-0-0-0-0-0-0--|
C||-----------------------------------------|--3-3-3-3-3-3-3-3-3-5-5-5-5-5-5-5-0-0-0-0-0-0-0-0--|


Guitar 2:
D||-------------------------------------------|----------------------------------------|
A||-------------------------------------------|----------------------------------------|
F||-------------------------------------------|----------------------------------------|
C||--12-12-12-12-12-7-7-7-7-8-8-8-8-10-10-10--|--12-12-12-12-12-7-7-7-7-8-8-8-8-8-8-8--|
G||--12-12-12-12-12-8-8-8-8-8-8-8-8-10-10-10--|--12-12-12-12-12-8-8-8-8-8-8-8-8-8-8-8--|
C||--12-12-12-12-12-7-7-7-7-8-8-8-8-10-10-10--|--12-12-12-12-12-7-7-7-7-8-8-8-8-8-8-8--|


D||-------------------------------------------|---------------------------------------------------|
A||-------------------------------------------|---------------------------------------------------|
F||-------------------------------------------|---------------------------------------------------|
C||--12-12-12-12-12-7-7-7-7-8-8-8-8-10-10-10--|--7-7-7-7-7-7-7-7-7-8-8-8-8-8-8-8-7-7-7-7-7-7-7-7--|
G||--12-12-12-12-12-8-8-8-8-8-8-8-8-10-10-10--|--3-3-3-3-3-3-3-3-3-5-5-5-5-5-5-5-0-0-0-0-0-0-0-0--|
C||--12-12-12-12-12-7-7-7-7-8-8-8-8-10-10-10--|--3-3-3-3-3-3-3-3-3-5-5-5-5-5-5-5-0-0-0-0-0-0-0-0--|


Guitar 1:
D||--------------------------|
A||--------------------------|
F||--3-----3-----3-----3-----|
C||-----7-----7-----7-----7--|
G||--------------------------|
C||--------------------------|



[Verse]
Guitar 1/2:
D||----------------------------------------------------|---------------------------------------------------|
A||----------------------------------------------------|---------------------------------------------------|
F||--3------3----------------3------3------------------|--3------3----------------3------3-----------------|
C||--7------7----------------7------7------10--10--10--|--7------7----------------7------7------1--1/4--3--|
G||-----x-x----x-x-------x-x-----------x-x-8---8---8---|-----x-x----x-x-------x-x-----------x-x-1--1/4--3--|
C||-----x-x----x-x-0--0--x-x-----0-----x-x-8---8---8---|-----x-x----x-x-0--0--x-x-----0-----x-x-1--1/4--3--|


D||----------------------------------------------------|---------------------------------------------------|
A||----------------------------------------------------|---------------------------------------------------|
F||--3------3----------------3------3------------------|--3------3----------------3------------------------|
C||--7------7----------------7------7------10--10--10--|--7------7----------------7-----7--8----10--12-----|
G||-----x-x----x-x-------x-x-----------x-x-8---8---8---|-----x-x----x-x-------x-x--------------------------|
C||-----x-x----x-x-0--0--x-x-----0-----x-x-8---8---8---|-----x-x----x-x-0--0--x-x----5-------8-------------|



[Chorus]
Guitar 1/2:
D||-------------------------------------------------|
A||----------------6---------6------6---------------|
F||----------------5---------5------5---------------|
C||--3--x-x-3--x-x---3--x-x-------3----x-x----7--8--|
G||--3--x-x-3--x-x---3--x-x-------3----x-x----------|
C||--3--x-x-3--x-x---3--x-x-------3----x-x-5--------|


D||--------------------------------------------------------|
A||----------------------------11---11---11---10-10-10-10--|
F||----------------------------10---10---10---10-10-10-10--|
C||--0--x-x-0--x-x-0-0--x-x-0------------------------------| [x2]
G||--0--x-x-0--x-x-0-0--x-x-0------------------------------|
C||--0--x-x-0--x-x-0-0--x-x-0------------------------------|



[Pre-Verse]
Guitar 1:
D||--------8-------8-----------5-----5------|--------8-------8-----------5-----5------|
A||-----10------10------10---6-----6-----6--|-----10------10------10---6-----6-----6--|
F||--10------10------10----7-----7-----7----|--10------10------10----7-----7-----7----|
C||-----------------------------------------|-----------------------------------------|
G||-----------------------------------------|-----------------------------------------|
C||-----------------------------------------|-----------------------------------------|


D||--------8-------8-----------5-----5------|---------------------------------------------------|
A||-----10------10------10---6-----6-----6--|---------------------------------------------------|
F||--10------10------10----7-----7-----7----|---------------------------------------------------|
C||-----------------------------------------|--7-7-7-7-7-7-7-7-7-8-8-8-8-8-8-8-7-7-7-7-7-7-7-7--|
G||-----------------------------------------|--3-3-3-3-3-3-3-3-3-5-5-5-5-5-5-5-0-0-0-0-0-0-0-0--|
C||-----------------------------------------|--3-3-3-3-3-3-3-3-3-5-5-5-5-5-5-5-0-0-0-0-0-0-0-0--|


Guitar 2:
D||-------------------------------------------|----------------------------------------|
A||-------------------------------------------|----------------------------------------|
F||-------------------------------------------|----------------------------------------|
C||--12-12-12-12-12-7-7-7-7-8-8-8-8-10-10-10--|--12-12-12-12-12-7-7-7-7-8-8-8-8-8-8-8--|
G||--12-12-12-12-12-8-8-8-8-8-8-8-8-10-10-10--|--12-12-12-12-12-8-8-8-8-8-8-8-8-8-8-8--|
C||--12-12-12-12-12-7-7-7-7-8-8-8-8-10-10-10--|--12-12-12-12-12-7-7-7-7-8-8-8-8-8-8-8--|


D||-------------------------------------------|---------------------------------------------------|
A||-------------------------------------------|---------------------------------------------------|
F||-------------------------------------------|---------------------------------------------------|
C||--12-12-12-12-12-7-7-7-7-8-8-8-8-10-10-10--|--7-7-7-7-7-7-7-7-7-8-8-8-8-8-8-8-7-7-7-7-7-7-7-7--|
G||--12-12-12-12-12-8-8-8-8-8-8-8-8-10-10-10--|--3-3-3-3-3-3-3-3-3-5-5-5-5-5-5-5-0-0-0-0-0-0-0-0--|
C||--12-12-12-12-12-7-7-7-7-8-8-8-8-10-10-10--|--3-3-3-3-3-3-3-3-3-5-5-5-5-5-5-5-0-0-0-0-0-0-0-0--|


Guitar 1:
D||--------------------------|
A||--4-----4-----4-----4-----|
F||-----7-----7-----7-----7--|
C||--------------------------|
G||--------------------------|
C||--------------------------|



[Breakdown]
Guitar 1/2:
D||----------|------------------|------------------|------------------|
A||----------|------------------|------------------|------------------|
F||--'6~-----|------------------|------------------|------------------|
C||----------|--1--1--1-0-------|--1--1--1-1---0~--|--1--1--1-1-------|
G||----------|--1--1--1-0-------|--1--1--1-1---0~--|--1--1--1-1-------|
C||----------|--1--1--1-0-------|--1--1--1-1---0~--|--1--1--1-1-------|


D||-----------------------------------------------|-------------------------------------------------|
A||-----------------------------------------------|-------------------------------------------------|
F||-----------------------------------------------|-------------------------------------------------|
C||--0--x-x-0--x-x-0-0--x-x-0---0-0--x-x-1--1--1--|--0--x-x-0--x-x-0-0--x-x-0---0-0--x-x-1--1/4--3--|
G||--0--x-x-0--x-x-0-0--x-x-0---0-0--x-x-1--1--1--|--0--x-x-0--x-x-0-0--x-x-0---0-0--x-x-1--1/4--3--|
C||--0--x-x-0--x-x-0-0--x-x-0---0-0--x-x-1--1--1--|--0--x-x-0--x-x-0-0--x-x-0---0-0--x-x-1--1/4--3--|


D||-----------------------------------------------|-------------------------------------------------|
A||-----------------------------------------------|-------------------------------------------------|
F||-----------------------------------------------|-------------------------------------------------|
C||--0--x-x-0--x-x-0-0--x-x-0---0-0--x-x-1--1--1--|--0--x-x-0--x-x-0-0--x-x-0-----7--8----10--12----|
G||--0--x-x-0--x-x-0-0--x-x-0---0-0--x-x-1--1--1--|--0--x-x-0--x-x-0-0--x-x-0-----------------------|
C||--0--x-x-0--x-x-0-0--x-x-0---0-0--x-x-1--1--1--|--0--x-x-0--x-x-0-0--x-x-0--5-------8------------|



[Interlude]
Guitar 1/2:
D||----------------------------|---------------------------------------|
A||----------------------------|---------------------------------------|
F||------------10~--------10~--|------------10~--------10~-------------|
C||--7~--------8~---------7~---|--7~--------8~---------7~---------12~--|
G||--3~--------5~---------0~---|--3~--------5~---------0~---------8~---|
C||--3~--------5~---------0~---|--3~--------5~---------0~---------8~---|


D||----------------------------|
A||----------------------------|
F||------------10~--------10~--|
C||--7~--------8~---------7~---|
G||--3~--------5~---------0~---|
C||--3~--------5~---------0~---|


D||---------|
A||---------|
F||---------|
C||---------|
G||---------|
C||--3/17\--|



[Bridge]
Guitar 1:
D||---------------------------------------------------|---------------------------------------------------|
A||---------------------------------------------------|---------------------------------------------------|
F||--10-10-10-10-10-10-10-15-15-15-15-14-14-14-14-10--|--10-10-10-10-10-10-10-19-19-19-19-15-15-15-15-14--|
C||--x--x--x--x--x--x--x--x--x--x--x--x--x--x--x--x---|--x--x--x--x--x--x--x--x--x--x--x--x--x--x--x--x---|
G||--8--8--8--8--8--8--8--13-13-13-13-12-12-12-12-8---|--8--8--8--8--8--8--8--17-17-17-17-13-13-13-13-12--|
C||---------------------------------------------------|---------------------------------------------------|


D||---------------------------------------------------|---------------------------------------------------|
A||---------------------------------------------------|---------------------------------------------------|
F||--14-14-14-14-14-14-14-14-14-14-14-14-14-14-14-14--|--14-15-15-15-15-15-15-15-10-10-10-10-10-10-10-10--|
C||--x--x--x--x--x--x--x--x--x--x--x--x--x--x--x--x---|--x--x--x--x--x--x--x--x--x--x--x--x--x--x--x--x---|
G||--12-12-12-12-12-12-12-12-12-12-12-12-12-12-12-12--|--12-13-13-13-13-13-13-13-8--8--8--8--8--8--8--8---|
C||---------------------------------------------------|---------------------------------------------------|


Guitar 2:
D||-------------------------------------------------------------------|
A||-------------------------------------------------------------------|
F||-------------------------------------------------------------------|
C||--3-3-3-3-3-3-3-3-3-3-3-3-3-3-3-3-5-5-5-5-5-5-5-5-5-5-5-5-5-5-5-5--|
G||--3-3-3-3-3-3-3-3-3-3-3-3-3-3-3-3-5-5-5-5-5-5-5-5-5-5-5-5-5-5-5-5--|
C||--3-3-3-3-3-3-3-3-3-3-3-3-3-3-3-3-5-5-5-5-5-5-5-5-5-5-5-5-5-5-5-5--|


D||-------------------------------------------------------------------|
A||-------------------------------------------------------------------|
F||-------------------------------------------------------------------|
C||--0-0-0-0-0-0-0-0-0-0-0-0-0-0-0-0-8-8-8-8-8-8-8-8-8-8-8-8-8-8-8-8--|
G||--0-0-0-0-0-0-0-0-0-0-0-0-0-0-0-0-8-8-8-8-8-8-8-8-8-8-8-8-8-8-8-8--|
C||--0-0-0-0-0-0-0-0-0-0-0-0-0-0-0-0-8-8-8-8-8-8-8-8-8-8-8-8-8-8-8-8--|



[Chorus]
Guitar 1:
D||---------------------------------------------------|---------------------------------------------------|
A||---------------------------------------------------|---------------------------------------------------|
F||--10-10-10-10-10-10-10-15-15-15-15-14-14-14-14-10--|--10-10-10-10-10-10-10-19-19-19-19-15-15-15-15-14--|
C||--x--x--x--x--x--x--x--x--x--x--x--x--x--x--x--x---|--x--x--x--x--x--x--x--x--x--x--x--x--x--x--x--x---|
G||--8--8--8--8--8--8--8--13-13-13-13-12-12-12-12-8---|--8--8--8--8--8--8--8--17-17-17-17-13-13-13-13-12--|
C||---------------------------------------------------|---------------------------------------------------|


D||---------------------------------------------------|---------------------------------------------------|
A||---------------------------------------------------|---------------------------------------------------|
F||--14-14-14-14-14-14-14-14-14-14-14-14-14-14-14-14--|--14-15-15-15-15-15-15-15-10-10-10-10-10-10-10-10--|
C||--x--x--x--x--x--x--x--x--x--x--x--x--x--x--x--x---|--x--x--x--x--x--x--x--x--x--x--x--x--x--x--x--x---|
G||--12-12-12-12-12-12-12-12-12-12-12-12-12-12-12-12--|--12-13-13-13-13-13-13-13-8--8--8--8--8--8--8--8---|
C||---------------------------------------------------|---------------------------------------------------|


Guitar 2:
D||-------------------------------------------------------------------|
A||-------------------------------------------------------------------|
F||-------------------------------------------------------------------|
C||--3-3-3-3-3-3-3-3-3-3-3-3-3-3-3-3-5-5-5-5-5-5-5-5-5-5-5-5-5-5-5-5--|
G||--3-3-3-3-3-3-3-3-3-3-3-3-3-3-3-3-5-5-5-5-5-5-5-5-5-5-5-5-5-5-5-5--|
C||--3-3-3-3-3-3-3-3-3-3-3-3-3-3-3-3-5-5-5-5-5-5-5-5-5-5-5-5-5-5-5-5--|


D||-------------------------------------------------------------------|
A||-------------------------------------------------------------------|
F||-------------------------------------------------------------------|
C||--0-0-0-0-0-0-0-0-0-0-0-0-0-0-0-0-8-8-8-8-8-8-8-8-8-8-8-8-8-8-8-8--|
G||--0-0-0-0-0-0-0-0-0-0-0-0-0-0-0-0-8-8-8-8-8-8-8-8-8-8-8-8-8-8-8-8--|
C||--0-0-0-0-0-0-0-0-0-0-0-0-0-0-0-0-8-8-8-8-8-8-8-8-8-8-8-8-8-8-8-8--|


Guitar 3:
D||--------8-------8-------8-------8-------8--|
A||-----11------11------11------11------11----|
F||--10------10------10------10------10-------|
C||-------------------------------------------|
G||-------------------------------------------|
C||-------------------------------------------|


D||--------13-------13-------10----------12----------13~--|
A||-----13-------13-------13----13----13----13----13------|
F||--10-------10-------10----------10----------10---------|
C||-------------------------------------------------------|
G||-------------------------------------------------------|
C||-------------------------------------------------------|



[Outro]
Guitar 1:
D||-----------------------------------|-----------------------------------|
A||-----------------------------------|-----------------------------------|
F||--------2---------------0----------|--------2---------------0----------|
C||----3-------3---3---3-------3------|----3-------3---3---3-------3------|
G||--5---5-------0---1---1-------3/5--|--5---5-------0---1---1-------3/5--|
C||-----------------------------------|-----------------------------------|


D||-----------------------------------|-----------------------------------|
A||-----------------------------------|-----------------------------------|
F||--------2---------------0----------|--------10-------9-------5---5-----|
C||----3-------3---3---3-------3------|----7--------7-------7-------------|
G||--5---5-------0---1---1-------3/5--|--8---8--------8-------8---8---8\--|
C||-----------------------------------|-----------------------------------|


D||-----------------------------------|-----------------------------------|
A||-----------------------------------|-----------------------------------|
F||--------2---------------0----------|--------2---------------0----------|
C||----3-------3---3---3-------3------|----3-------3---3---3-------3------|
G||--5---5-------0---1---1-------3/5--|--5---5-------0---1---1-------3/5--|
C||-----------------------------------|-----------------------------------|


D||-----------------------------------|-----------------------------------|
A||-----------------------------------|-----------------------------------|
F||--------2---------------0----------|--------10-------9------------5~---|
C||----3-------3---3---3-------3------|----7--------7-------7--------7~---|
G||--5---5-------0---1---1-------3/5--|--8---8--------8-------8~----------|
C||-----------------------------------|-----------------------------------|





*****************************
-Tablature Legend-

 h   hammer-on
 p   pull-off
 b   bend
 pb  pre-bend
 r   release bend
 ~   hold / vibrato
 .   palm mute
 /   slide up
 \   slide down
 *   pinch harmonic
 '   natural harmonic
 x   mute note
 T   tap

*****************************
Suggest correction
Give kudos to tab author, rate the tab!
1 2 3 4 5
comments
print report bad tab
guest
You may want to rate the tab now too:
select rating
Wanna post a correction for this tab? Suggest correction