Oops, an error
Loading. Please wait.

Justified Tab

version 2
version 2

Whole song

Interactive

157 views 27 this week
no commentswrite comment
1 2 3 4 5
2 more votes to show rating
add to favorites
launch autoscroll
font size
0
reset
how to read this tab
guitar tuner
Autoscroll
slow
fast
+/-
esc
set tempo
stop
Help us to improve Ultimate-Guitar.com Take our survey!
×
Author
Difficulty
Tuning
intermediate
C G C F A D
[Justified]
[Bad Vibrations]
[A Day To Remember]

Tuning: C G C F A D
Playthrough: https://www.youtube.com/watch?v=yPkGKdMiwKw&feature=youtu.be


[Riff 1, Guitar 1 & 2] - [00:00] - [00:31]
- -----------------------------------------------------------------
- -----------------------------------------------------------------
- -----------------10--------------10------------------------------
- -7---------------8---------------7-------------------------------
- -3---------------5---------------8-------------------------------
- -3---------------5---------------0-------------------------------
-
- -----------------------------------------------------------------
- -----------------11--------------10------------------------------
- -10--------------------------------------------------------------
- -----------------------------------------------------------------
- -----------------------------------------------------------------
- -----------------------------------------------------------------


- -----------------------------------------------------------------
- -----------------------------------------------------------------
- -----------------10--------------10------------------------------
- -7---------------8---------------7-------------------------------
- -3---------------5---------------8-------------------------------
- -3---------------5---------------0-------------------------------
-
- -----------------13----------------------------------------------
- ---------------------------------10------------------------------
- -10--------------------------------------------------------------
- -----------------------------------------------------------------
- -----------------------------------------------------------------
- -----------------------------------------------------------------


- -----------------------------------------------------------------
- -----------------------------------------------------------------
- -----------------10--------------10------------------------------
- -7---------------8---------------7-------------------------------
- -3---------------5---------------8-------------------------------
- -3---------------5---------------0-------------------------------
-
- -----------------------------------------------------------------
- -----------------11--------------10------------------------------
- -10--------------------------------------------------------------
- -----------------------------------------------------------------
- -----------------------------------------------------------------
- -----------------------------------------------------------------


- -----------------------------------------------------------------
- -----------------------------------------------------------------
- -----------------10--------------10------------------------------
- -7---------------8---------------7---------------------------12\-
- -3---------------5---------------8---------------------------12\-
- -3---------------5---------------0---------------------------12\-
-
- -----------------13----------------------------------------------
- ---------------------------------10------------------------------
- -10--------------------------------------------------------------
- -----------------------------------------------------------------
- -----------------------------------------------------------------
- -----------------------------------------------------------------


[Riff 2] - [00:31] - [00:47] - [x2]
- -----------------------------------------------------------------
- -----------------6-----------6-----------6-----------------------
- -----------------5-----------5-----------5-------------------3---
- -3-------3-------3---3-------3-----3-----3-------------7---------
- -3-----3-3-----3-----3---3-3-------3---------3-3-----------------
- -3-----3-3-----3-----3---3-3-------3---------3-3-5---------------
PM       .       .         ...                 ...

- -------------------------------------------------------------------------
- ---------------------------------11----11----11--10-10-10-10-10-10-10-10-
- ---------------------------------10----10----10--10-10-10-10-10-10-10-10-
- -0-------0-------0---0-------0---8-----8-----8---8--8--8--8--8--8--8--8--
- -0-----0-0-----0-0---0---0-0-0-------------------------------------------
- -0-----0-0-----0-0---0---0-0-0-------------------------------------------
PM       .       .         ...

[Riff 3a] - [00:47] - [
- -----------------------------------------------------------------
- -6-6-6-6-6\----------------------6-6-6-6-6\----------------------
- -x-x-x-x-x-2-2-2-2-3-3-3-3-7-7---x-x-x-x-x-2-2-2-2-3-3-3-3-3-3---
- -7-7-7-7-7\3-3-3-3-3-3-3-3-5-5---7-7-7-7-7\3-3-3-3-3-3-3-3-3-3---
- -5-5-5-5-5\0-0-0-0-1-1-1-1-3-3---5-5-5-5-5\0-0-0-0-1-1-1-1-1-1---
- -----------------------------------------------------------------

- -----------------------------------------------------------------
- -6-6-6-6-6\------------------------------------------------------
- -x-x-x-x-x-2-2-2-2-3-3-3-3-7-7-----------------------------------
- -7-7-7-7-7\3-3-3-3-3-3-3-3-5-5---3-3-3-3-3-3-3-3---5-5-5-5-5-5---
- -5-5-5-5-5\0-0-0-0-1-1-1-1-3-3---3-3-3-3-3-3-3-3---5-5-5-5-5-5---
- ---------------------------------3-3-3-3-3-3-3-3---5-5-5-5-5-5---

- ---------------------------------
- ---------------------------------
- -----------------3---3---3---3---
- -0-0-0-0-0-0-0-0---7---7---7---7-
- -0-0-0-0-0-0-0-0-----------------
- -0-0-0-0-0-0-0-0-----------------

[Riff 3b] - [00:47] - [01:05]
- -------8-------8-------------5-------5-----------8-------8-------------5-------5-----
- ----10------10------10----6-------6------6----10------10------10----6-------6------6-
- -10------10------10----7-------7-------7---10------10------10----7-------7-------7---
- -------------------------------------------------------------------------------------
- -------------------------------------------------------------------------------------
- -------------------------------------------------------------------------------------

- -------8-------8-------------5-------5---------------------------------------------------
- ----10------10------10----6-------6------6-----------------------------------------------
- -10------10------10----7-------7-------7---10-10-10-10-10-10-10-10---12-12-12-12-12-12---
- -------------------------------------------x--x--x--x--x--x--x--x----x--x--x--x--x--x----
- -------------------------------------------8--8--8--8--8--8--8--8----10-10-10-10-10-10---
- -----------------------------------------------------------------------------------------

- -------------------------
- -------------------------
- -10-10-10-10-10-10-10-10-
- -x--x--x--x--x--x--x--x--
- -8--8--8--8--8--8--8--8--
- -------------------------

[Riff 4] - [01:05] - [01:21]
- -------------------------------------------------------------------
- -------------------------------------------------------------------
- -3-------3-------------------3-----------3---------10----10----10--
- -7-------7-------------------7-----------7---------10----10----10--
- -------0-------0---------0-0-------------------0-0-8-----8-----8---
- -------0-------0-0---0---0-0-------0-----------0-0-8-----8-----8---
PM       .       .         ...                   ...

- -------------------------------------------------------------------
- -------------------------------------------------------------------
- -3-------3-------------------3-----------3-------------------------
- -7-------7-------------------7-----------7---------1-----4-----3---
- -------0-------0---------0-0-------------------0-0-1-----4-----3---
- -------0-------0-0---0---0-0-------0-----------0-0-1-----4-----3---
PM       .       .         ...                   ...

- -------------------------------------------------------------------
- -------------------------------------------------------------------
- -3-------3-------------------3-----------3---------10----10----10--
- -7-------7-------------------7-----------7---------10----10----10--
- -------0-------0---------0-0-------------------0-0-8-----8-----8---
- -------0-------0-0---0---0-0-------0-----------0-0-8-----8-----8---
PM       .       .         ...                   ...

- -----------------------------------------------------------------
- -----------------------------------------------------------------
- -3-------3-------------------3---------------3---------------7---
- -7-------7-------------------7---------7---------------10--------
- -------0-------0---------0-0-------------------------------------
- -------0-------0-0---0---0-0-----5---------------8---------------
PM       .       .         ...

[Riff 2] - [01:21] - [01:36] - [x2]

[Riff 5a] - [01:36] - [01:55]
- -----------------------------------------------------------------
- -6-6-6-6-6\----------------------6-6-6-6-6\----------------------
- -x-x-x-x-x-2-2-2-2-3-3-3-3-7-7---x-x-x-x-x-2-2-2-2-3-3-3-3-3-3---
- -7-7-7-7-7\3-3-3-3-3-3-3-3-5-5---7-7-7-7-7\3-3-3-3-3-3-3-3-3-3---
- -5-5-5-5-5\0-0-0-0-1-1-1-1-3-3---5-5-5-5-5\0-0-0-0-1-1-1-1-1-1---
- -----------------------------------------------------------------

- -----------------------------------------------------------------
- -6-6-6-6-6\------------------------------------------------------
- -x-x-x-x-x-2-2-2-2-3-3-3-3-7-7-----------------------------------
- -7-7-7-7-7\3-3-3-3-3-3-3-3-5-5---3-3-3-3-3-3-3-3---5-5-5-5-5-5---
- -5-5-5-5-5\0-0-0-0-1-1-1-1-3-3---3-3-3-3-3-3-3-3---5-5-5-5-5-5---
- ---------------------------------3-3-3-3-3-3-3-3---5-5-5-5-5-5---

- ---------------------------------
- -----------------4---4---4---4---
- -------------------7---7---7---7-
- -0-0-0-0-0-0-0-0-----------------
- -0-0-0-0-0-0-0-0-----------------
- -0-0-0-0-0-0-0-0-----------------

[Riff 5b] - [01:36] - [01:55]
- -------8-------8-------------5-------5-----------8-------8-------------5-------5-----
- ----10------10------10----6-------6------6----10------10------10----6-------6------6-
- -10------10------10----7-------7-------7---10------10------10----7-------7-------7---
- -------------------------------------------------------------------------------------
- -------------------------------------------------------------------------------------
- -------------------------------------------------------------------------------------

- -------8-------8-------------5-------5---------------------------------------------------------
- ----10------10------10----6-------6------6----10-10-10-10-10-10-10-10-10---11-11-11-11-11-11---
- -10------10------10----7-------7-------7------x--x--x--x--x--x--x--x--x----x--x--x--x--x--x----
- ----------------------------------------------7--7--7--7--7--7--7--7--7----8--8--8--8--8--8----
- -----------------------------------------------------------------------------------------------
- -----------------------------------------------------------------------------------------------

- -------------------------
- -10-10-10-10-10-10-10-10-
- -x--x--x--x--x--x--x--x--
- -7--7--7--7--7--7--7--7--
- -------------------------
- -------------------------


[Riff 6, Guitar 1 & 2] - [01:55] - [02:10]
- -----------------------------------------------------------------
- -----------------------------------------------------------------
- -[3]-------------------------------------------------------------
- -[3]---------------------1--1--1-0-----------------------1--1--1-
- -------------------------1--1--1-0-----------------------1--1--1-
- -------------------------1--1--1-0-----------------------1--1--1-
-
- -----------------------------------------------------------------
- -----------------------------------------------------------------
- -----------------------------------------------------------------
- -0-----------------------1--1--1-0-----------------------1--1--1-
- -0-----------------------1--1--1-0-----------------------1--1--1-
- -0-----------------------1--1--1-0-----------------------1--1--1-


- -----------------------------------------------------------------
- -----------------------------------------------------------------
- -----------------------------------------------------------------
- -1---0-------------------------------------------1--1--1-1-------
- -1---0-------------------------------------------1--1--1-1-------
- -1---0-------------------------------------------1--1--1-1-------
-
- -----------------------------------------------------------------
- -----------------------------------------------------------------
- -----------------------------------------------------------------
- -1---0-------------------------------------------1--1--1-1-------
- -1---0-------------------------------------------1--1--1-1-------
- -1---0-------------------------------------------1--1--1-1-------


[Riff 7] - [02:10] - [02:25]
- -----------------------------------------------------------------
- -----------------------------------------------------------------
- -----------------------------------------------------------------
- -0-------0-------0---0-------0-----0-----0-------1-----1-----1---
- -0-----0-0-----0-0---0---0-0-0-----0-----0---0-0-1-----1-----1---
- -0-----0-0-----0-0---0---0-0-0-----0-----0---0-0-1-----1-----1---
PM       .       .         ...                ...

- -----------------------------------------------------------------
- -----------------------------------------------------------------
- -----------------------------------------------------------------
- -0-------0-------0---0-------0-----0-----0-------1-----4-----3---
- -0-----0-0-----0-0---0---0-0-0-----0-----0---0-0-1-----4-----3---
- -0-----0-0-----0-0---0---0-0-0-----0-----0---0-0-1-----4-----3---
PM       .       .         ...                ...

- -----------------------------------------------------------------
- -----------------------------------------------------------------
- -----------------------------------------------------------------
- -0-------0-------0---0-------0-----0-----0-------1-----1-----1---
- -0-----0-0-----0-0---0---0-0-0-----0-----0---0-0-1-----1-----1---
- -0-----0-0-----0-0---0---0-0-0-----0-----0---0-0-1-----1-----1---
PM       .       .         ...                ...

- -----------------------------------------------------------------
- -----------------------------------------------------------------
- ---------------------------------------------3---------------7---
- -0-------0-------0---0-------0---------7---------------10--------
- -0-----0-0-----0-0---0---0-0-0-----------------------------------
- -0-----0-0-----0-0---0---0-0-0---5---------------8---------------
PM       .       .         ...

[Riff 8, Guitar 1 & 2] - [02:25] - [02:48]
- -----------------------------------------------------------------
- -----------------------------------------------------------------
- -----------------10--------------10------------------------------
- -7---------------8---------------7-------------------------------
- -3---------------5---------------8-------------------------------
- -3---------------5---------------0-------------------------------
-
- -----------------------------------------------------------------
- -----------------11--------------10------------------------------
- -10--------------------------------------------------------------
- -----------------------------------------------------------------
- -----------------------------------------------------------------
- -----------------------------------------------------------------


- -----------------------------------------------------------------
- -----------------------------------------------------------------
- -----------------10--------------10--------------7---------------
- -7---------------8---------------7---------------8---------------
- -3---------------5---------------8---------------8---------------
- -3---------------5---------------0-------------------------------
-
- -----------------13----------------------------------------------
- ---------------------------------10------------------------------
- -10--------------------------------------------------------------
- -----------------------------------------------------------------
- -----------------------------------------------------------------
- -----------------------------------------------------------------


- -----------------------------------------------------------------
- -----------------------------------------------------------------
- -----------------10--------------10------------------------------
- -7---------------8---------------7-------------------------3/15\-
- -3---------------5---------------8-------------------------3/15\-
- -3---------------5---------------0-------------------------3/15\-
-
- -----------------------------------------------------------------
- -----------------11--------------10------------------------------
- -10--------------------------------------------------------------
- -----------------------------------------------------------------
- -----------------------------------------------------------------
- -----------------------------------------------------------------


[Riff 9a] - [02:48] - [03:18]
- -----------------------------------------------------------------
- -----------------------------------------------------------------
- -----------------------------------------------------------------
- -7-7-7-7-7-7-7-7-7-7-7-7-7-7-7-7-8-8-8-8-8-8-8-8-8-8-8-8-8-8-8-8-
- -3-3-3-3-3-3-3-3-3-3-3-3-3-3-3-3-5-5-5-5-5-5-5-5-5-5-5-5-5-5-5-5-
- -3-3-3-3-3-3-3-3-3-3-3-3-3-3-3-3-5-5-5-5-5-5-5-5-5-5-5-5-5-5-5-5-

- -----------------------------------------------------------------
- -----------------------------------------------------------------
- -----------------------------------------------------------------
- -7-7-7-7-7-7-7-7-7-7-7-7-5-5-5-5-3-3-3-3-3-3-3-3-3-3-3-3-3-3-3-3-
- -5-5-5-5-5-5-5-5-5-5-5-5-3-3-3-3-1-1-1-1-1-1-1-1-1-1-1-1-1-1-1-1-
- -0-0-0-0-0-0-0-0-0-0-0-0-----------------------------------------

- -----------------------------------------------------------------
- -----------------------------------------------------------------
- -----------------------------------------------------------------
- -7-7-7-7-7-7-7-7-7-7-7-7-7-7-7-7-8-8-8-8-8-8-8-8-8-8-8-8-7-7-7-7-
- -3-3-3-3-3-3-3-3-3-3-3-3-3-3-3-3-5-5-5-5-5-5-5-5-5-5-5-5-7-7-7-7-
- -3-3-3-3-3-3-3-3-3-3-3-3-3-3-3-3-5-5-5-5-5-5-5-5-5-5-5-5-7-7-7-7-

- -----------------------------------------------------------------
- -----------------------------------------------------------------
- -----------------------------------------------------------------
- -7-7-7-7-7-7-7-7-7-7-7-7-3-3-3-3-3-3-3-3-3-3-3-3-3-3-3-3-3-3-3-3-
- -5-5-5-5-5-5-5-5-5-5-5-5-3-3-3-3-1-1-1-1-1-1-1-1-1-1-1-1-1-1-1-1-
- -0-0-0-0-0-0-0-0-0-0-0-0-3-3-3-3---------------------------------

[Riff 9b] - [02:48] - [03:18]
- -----------------------------------------------------------------------------------
- -6-6-6-6-6-6-6/11-11-11-11\10-10-10-10-10-6-6-6-6-6-6-6/15-15-15-15\11-11-11-11\10-
- -x-x-x-x-x-x-x-x--x--x--x--x--x--x--x--x--x-x-x-x-x-x-x-x--x--x--x--x--x--x--x--x--
- -3-3-3-3-3-3-3/8--8--8--8-\7--7--7--7--7--3-3-3-3-3-3-3/12-12-12-12\8--8--8--8-\7--
- -----------------------------------------------------------------------------------
- -----------------------------------------------------------------------------------

- -------------------------------------------------------------------------------------------------
- -10-10-10-10-10-10-10-10-10-10-10-10-10-10-10-10-10/11-11-11-11-11-11-13-13-13-13-13-13-13-13-13-
- -x--x--x--x--x--x--x--x--x--x--x--x--x--x--x--x--x--x--x--x--x--x--x--10-10-10-10-10-10-10-10-10-
- -7--7--7--7--7--7--7--7--7--7--7--7--7--7--7--7--7-/8--8--8--8--8--8--10-10-10-10-10-10-10-10-10-
- -------------------------------------------------------------------------------------------------
- -------------------------------------------------------------------------------------------------

- -------13-------13-------13------13--------13----------13-------13-------13------13--------13----
- ----11-------11-------11-------11-------11----11----11-------11-------11-------11-------11----11-
- -14-------14-------14-------14-------14----------14-------14-------14-------14-------14----------
- -------------------------------------------------------------------------------------------------
- -------------------------------------------------------------------------------------------------
- -------------------------------------------------------------------------------------------------

- -------8--------8--------8--------8--------8-----------13-------13-------13----------12----------
- ----11-------11-------11-------11-------11----11----11-------11-------11----13----13----13----13-
- -10-------10-------10-------10-------10----------10-------10-------10----------15----------15----
- -------------------------------------------------------------------------------------------------
- -------------------------------------------------------------------------------------------------
- -------------------------------------------------------------------------------------------------

[Riff 10] - [03:18] - [03:58]
- -----------------------------------------------------------------
- -----------------------------------------------------------------
- -------2---------------0---------------2---------------0---------
- ---3-------3---3---3-------3-------3-------3---3---3-------3-----
- -5---5-------0---1---1-------3/5-5---5-------0---1---1-------3/5-
- -----------------------------------------------------------------

- -----------------------------------------------------------------
- ---------------------------------------6-------5-----------------
- -------2---------------0-------------------------------5---5-----
- ---3-------3---3---3-------3-------7-------7-------7-------------
- -5---5-------0---1---1-------3/--8---8-------8-------8---8---8\--
- -----------------------------------------------------------------

- -----------------------------------------------------------------
- -----------------------------------------------------------------
- -------2---------------0---------------2---------------0---------
- ---3-------3---3---3-------3-------3-------3---3---3-------3-----
- -5---5-------0---1---1-------3/5-5---5-------0---1---1-------3/5-
- -----------------------------------------------------------------

- -----------------------------------------------------------------
- ---------------------------------------6-------5-----------------
- -------2---------------0---------------------------------5-------
- ---3-------3---3---3-------3-------7-------7-------7-----7-------
- -5---5-------0---1---1-------3/--8---8-------8-------8-----------
- -----------------------------------------------------------------


[Symbols]

PM... Palm Mute notes with (...) under them
AP... Alternate Pick notes with (...) under them
h     Hammer On
p     Pull Off
[ ]   Harmonic
/     Slide Up
\     Slide Down
x     Dead Note
b     Bend
hb    Hold Bend
p     Pre-Bend
r     Release Bend
(x )  Play Notes x amount of times
~     Let Ring
/ 3 \ Notes are triplets (3 notes in the space of two)
w\    Whammy Bar Down
w/    Whammy Bar Up
T     Right Hand Tap

:)
Suggest correction
Give kudos to tab author, rate the tab!
1 2 3 4 5
comments
print report bad tab
guest
You may want to rate the tab now too:
select rating
Wanna post a correction for this tab? Suggest correction