Oops, an error
Loading. Please wait.

Life 11 Tab

version 1
version 1

Whole song

Interactive

9,292 views 6 this week
1 commentread comment
1 2 3 4 5
x 7
add to favorites
launch autoscroll
font size
0
reset
how to read this tab
guitar tuner
Autoscroll
slow
fast
+/-
esc
set tempo
stop
Help us to improve Ultimate-Guitar.com Take our survey!
×
Author
Difficulty
Tuning
intermediate
C G C F A D
-------------------------------------------------------------------------------
                             Life @ 11 - A Day to Remember
-------------------------------------------------------------------------------
Tabbed by: Jake McDaniel
E-mail: jake.mcdaniel8422@gmail.com

Tuning: Drop C
C,G,C,F,A,D

Lead Guitar: Intro

D|---------------------------------------------------------------------------|
A|---------------------------------------------------------------------------|
F|-11-11-11-11-11-11-6-6-6-6-6-6-6-6-11-11-11-15-15-15-6-6-6-6-6-6-6-6-------|
C|-x--x--x--x--x--x--x-x-x-x-x-x-x-x-x--x--x--x--x--x--x-x-x-x-x-x-x-x-------|
G|-9--9--9--9--9--9--4-4-4-4-4-4-4-4-9--9--9--13-13-13-4-4-4-4-4-4-4-4-------|
C|---------------------------------------------------------------------------|

D|---------------------------------------------------------------------------|
A|---------------------------------------------------------------------------|
F|-11-11-11-15-15-15-6-6-6-6-6-6-6-6-11-11-11-15-15-15-6-6-6-6-6-6-6-6-------|
C|-x--x--x--x--x--x--x-x-x-x-x-x-x-x-x--x--x--x--x--x--x-x-x-x-x-x-x-x-------|
G|-9--9--9--13-13-13-4-4-4-4-4-4-4-4-9--9--9--13-13-13-4-4-4-4-4-4-4-4-------|
C|---------------------------------------------------------------------------|

Rhythm Guitar: Intro (Repeat Twice)

D|---------------------------------------------------------------------------|
A|---------------------------------------------------------------------------|
F|-8-8-8-4-4-4---------------------------------------------------------------|
C|-8-8-8-4-4-4-4-4-4-4-4-4-4-4-----------------------------------------------|
G|-6-6-6-2-2-2-4-4-4-4-4-4-4-4-----------------------------------------------|
C|-------------4-4-4-4-4-4-4-4-----------------------------------------------|

Lead Guitar: Verse 1

Repeat this first part three times...

D|---------------------------------------------------------------------------|
A|-----------------------11--------------------------------------------------|
F|-[8]-[8]-11-8-10h11-10-----11--8-10-8-10-8-10h11---------------------------|
C|---------------------------------------------------------------------------|
G|---------------------------------------------------------------------------|
C|---------------------------------------------------------------------------|

Rhythm Guitar: Verse 1

Repeat three times...

D|---------------------------------------------------------------------------|
A|---------------------------------------------------------------------------|
F|-[8]-[8]-[8]-[8]-[8]-[8]-[8]-[8]-[4]-[4]-[4]-[4]---------------------------|
C|-[8]-[8]-[8]-[8]-[8]-[8]-[8]-[8]-[4]-[4]-[4]-[4]-[4]-[4]-[4]-[4]-----------|
G|-[6]-[6]-[6]-[6]-[6]-[6]-[6]-[6]-[2]-[2]-[2]-[2]-[4]-[4]-[4]-[4]-----------|
C|-------------------------------------------------[4]-[4]-[4]-[4]-----------|

Then...

D|---------------------------------------------------------------------------|
A|---------------------------------------------------------------------------|
F|---------------------------------------------------------------------------|
C|-6-6-6-6-6-6-6-6-9-9-9-4-4-4-4-4-------------------------------------------|
G|-6-6-6-6-6-6-6-6-9-9-9-4-4-4-4-4-------------------------------------------|
C|-6-6-6-6-6-6-6-6-9-9-9-4-4-4-4-4-------------------------------------------|

Lead Guitar: Pre-Chorus

D|---------------------------------------------------------------------------|
A|---------------------------------------------------------------------------|
F|-6/8\6/8--4--4--4--4--------6/8\6/8--4--4--4--4----------------------------|
C|-x-x-x-x--x--x--x--x-4-4-4--x-x-x-x--x--x--x--x-4-4-4----------------------|
G|-4/6\4/6--2--2--2--2-4-4-4--4/6\4/6--2--2--2--2-4-4-4----------------------|
C|---------------------4-4-4----------------------4-4-4----------------------|

D|---------------------------------------------------------------------------|
A|---------------------------------------------------------------------------|
F|---------------------------------------------------------------------------|
C|-6-6-6-6-6-6-6-6-9-9-9-9-4-4-4-4-------------------------------------------|
G|-6-6-6-6-6-6-6-6-9-9-9-9-4-4-4-4-------------------------------------------|
C|-6-6-6-6-6-6-6-6-9-9-9-9-4-4-4-4-------------------------------------------|

Rhythm Guitar: Pre-Chorus (Similar to lead)

D|---------------------------------------------------------------------------|
A|---------------------------------------------------------------------------|
F|-6/8\6/8--4--4--4--4--------6/8\6/8--4--4--4--4----------------------------|
C|-6/8\6/8--4--4--4--4-4-4-4--6/8\6/8--4--4--4--4-4-4-4----------------------|
G|-4/6\4/6--2--2--2--2-4-4-4--4/6\4/6--2--2--2--2-4-4-4----------------------|
C|---------------------4-4-4----------------------4-4-4----------------------|

D|---------------------------------------------------------------------------|
A|---------------------------------------------------------------------------|
F|---------------------------------------------------------------------------|
C|-6-6-6-6-6-6-6-6-9-9-9-9-4-4-4-4-------------------------------------------|
G|-6-6-6-6-6-6-6-6-9-9-9-9-4-4-4-4-------------------------------------------|
C|-6-6-6-6-6-6-6-6-9-9-9-9-4-4-4-4-------------------------------------------|

Lead Guitar: Chorus

D|---------------------------------------------------------------------------|
A|---------------------------------------------------------------------------|
F|-11-11-11-15-15-15-6-6-6-6-6-6-6-6-11-11-11-15-15-15-6-6-6-6-6-6-6-6-------|
C|-x--x--x--x--x--x--x-x-x-x-x-x-x-x-x--x--x--x--x--x--x-x-x-x-x-x-x-x-------|
G|-9--9--9--13-13-13-4-4-4-4-4-4-4-4-9--9--9--13-13-13-4-4-4-4-4-4-4-4-------|
C|---------------------------------------------------------------------------|

D|---------------------------------------------------------------------------|
A|---------------------------------------------------------------------------|
F|-11-11-11-15-15-15-6-6-6-6-6-6-6-6-11-11-11-15-15-15-8-8-8-8-8-8-8-8-------|
C|-x--x--x--x--x--x--x-x-x-x-x-x-x-x-x--x--x--x--x--x--x-x-x-x-x-x-x-x-------|
G|-9--9--9--13-13-13-4-4-4-4-4-4-4-4-9--9--9--13-13-13-6-6-6-6-6-6-6-6-------|
C|---------------------------------------------------------------------------|

(Chorus ext.)

D|---------------------------------------------------------------------------|
A|---------------------------------------------------------------------------|
F|-11-11-11-15-15-15-6-6-6-6-6-6-6-6-11-11-11-15-15-15-6-6-6-6-6-6-6-6-------|
C|-x--x--x--x--x--x--x-x-x-x-x-x-x-x-x--x--x--x--x--x--x-x-x-x-x-x-x-x-------|
G|-9--9--9--13-13-13-4-4-4-4-4-4-4-4-9--9--9--13-13-13-4-4-4-4-4-4-4-4-------|
C|---------------------------------------------------------------------------|

Rhythm Guitar: Chorus

D|---------------------------------------------------------------------------|
A|---------------------------------------------------------------------------|
F|-8-8-8-4-4-4-----------------8-8-8-4-4-4-----------------------------------|
C|-8-8-8-4-4-4-4-4-4-4-4-4-4-4-8-8-8-4-4-4-4-4-4-4-4-4-4-4-------------------|
G|-6-6-6-2-2-2-4-4-4-4-4-4-4-4-6-6-6-2-2-2-4-4-4-4-4-4-4-4-------------------|
C|-------------4-4-4-4-4-4-4-4-------------4-4-4-4-4-4-4-4-------------------|

D|---------------------------------------------------------------------------|
A|---------------------------------------------------------------------------|
F|-8-8-8-4-4-4-----------------4-4-4-4-4-4-4-4-4-4-4-4-4-4-4-4---------------|
C|-8-8-8-4-4-4-4-4-4-4-4-4-4-4-4-4-4-4-4-4-4-4-4-4-4-4-4-4-4-4---------------|
G|-6-6-6-2-2-2-4-4-4-4-4-4-4-4-2-2-2-2-2-2-2-2-2-2-2-2-2-2-2-2---------------|
C|-------------4-4-4-4-4-4-4-4-----------------------------------------------|

(Chorus ext.)

D|---------------------------------------------------------------------------|
A|---------------------------------------------------------------------------|
F|-8-8-8-4-4-4-----------------8-8-8-4-4-4-----------------------------------|
C|-8-8-8-4-4-4-4-4-4-4-4-4-4-4-8-8-8-4-4-4-4-4-4-4-4-4-4-4-------------------|
G|-6-6-6-2-2-2-4-4-4-4-4-4-4-4-6-6-6-2-2-2-4-4-4-4-4-4-4-4-------------------|
C|-------------4-4-4-4-4-4-4-4-------------4-4-4-4-4-4-4-4-------------------|

Guitar: Verse 2 (There is no distinction between lead and rhythm)

I believe that faint chord in the background is...

D|---------------------------------------------------------------------------|
A|-7~~~~~~~~~~~~-7~~~~~~~~~~~~-----------------------------------------------|
F|-8~~~~~~~~~~~~-8~~~~~~~~~~~~-----------------------------------------------|
C|-8~~~~~~~~~~~~-8~~~~~~~~~~~~-6-6-6-6-6-6-6-6-9-9-9-9-4-4-4-4---------------|
G|-6~~~~~~~~~~~~-6~~~~~~~~~~~~-6-6-6-6-6-6-6-6-9-9-9-9-4-4-4-4---------------|
C|-----------------------------6-6-6-6-6-6-6-6-9-9-9-9-4-4-4-4---------------|

*Pre-Chorus*

*Chorus repeated twice without the extension in the end*

Lead Guitar: Bridge

.................................STOP!

D|---------------------------4~~~~~~~~---------------------------------------|
A|----4~~~--7--6~~~----4~~~--------------4---7-6----4---7-6------------------|
F|-6~~~--6~~~-------6~~~--6~~----------6---6------6---6----------------------|
C|---------------------------------------------------------------------------|
G|---------------------------------------------------------------------------|
C|---------------------------------------------------------------------------|

D|---------------------------------------------------------------------------|
A|---------------------------------------------------------------------------|
F|-/11-11-11-11-11-11-11-11-10-10-10-10-6-6-6-6------------------------------|
C|---------------------------------------------------------------------------|
G|---------------------------------------------------------------------------|
C|---------------------------------------------------------------------------|

D|---------------------------------------------------------------------------|
A|---4---7-6----4---7-6-/15-15-15-15-15-15-15-15-13-13-13-13-11-11-11-11-----|
F|-6---6------6---6------x--x--x--x--x--x--x--x--x--x--x--x--x--x--x--x------|
C|----------------------/13-13-13-13-13-13-13-13-10-10-10-10-9--9--9--9------|
G|---------------------------------------------------------------------------|
C|---------------------------------------------------------------------------|

D|---------------------------------------------------------------------------|
A|---4---7-6----4---7-6------------------------------------------------------|
F|-6---6------6---6-----/11-11-11-11-11-11-11-11-10-10-10-10-6-6-6-6---------|
C|---------------------------------------------------------------------------|
G|---------------------------------------------------------------------------|
C|---------------------------------------------------------------------------|

D|---------------------------------------------------------------------------|
A|---4---7-6----4---7-6-/15-15-15-15-15-15-15-15-13-13-13-13-11-11-11-11-----|
F|-6---6------6---6------x--x--x--x--x--x--x--x--x--x--x--x--x--x--x--x------|
C|----------------------/13-13-13-13-13-13-13-13-10-10-10-10-9--9--9--9------|
G|---------------------------------------------------------------------------|
C|---------------------------------------------------------------------------|

D|---------------------------------------------------------------------------|
A|---4---7-6----4---7-6------------------------------------------------------|
F|-6---6------6---6-----/11-11-11-11-11-11-11-11-10-10-10-10-6-6-6-6---------|
C|---------------------------------------------------------------------------|
G|---------------------------------------------------------------------------|
C|---------------------------------------------------------------------------|

D|---------------------------------------------------------------------------|
A|---------------------------------------------------------------------------|
F|-11-11-11-11-11-11-11-11-11-11-11-11-11-11-11-11-8-8-8-8-8-8-8-8-----------|
C|---------------------------------------------------------------------------|
G|---------------------------------------------------------------------------|
C|---------------------------------------------------------------------------|

D|---------------------------------------------------------------------------|
A|---------------------------------------------------------------------------|
F|-10-10-10-10-10-10-10-11---------------------------------------------------|
C|---------------------------------------------------------------------------|
G|---------------------------------------------------------------------------|
C|---------------------------------------------------------------------------|

Rhythm Guitar: Bridge

Play this twice...

D|---------------------------------------------------------------------------|
A|---------------------------------------------------------------------------|
F|-4-4-4-4-4-4-4-4-4-4-4-4-4-6-6-6-6-8-8-8-8-8-8-8-8-8-8-8-8-8---------------|
C|-4-4-4-4-4-4-4-4-4-4-4-4-4-6-6-6-6-8-8-8-8-8-8-8-8-8-8-8-8-8-4-4-4-4-------|
G|-2-2-2-2-2-2-2-2-2-2-2-2-2-4-4-4-4-6-6-6-6-6-6-6-6-6-6-6-6-6-4-4-4-4-------|
C|-------------------------------------------------------------4-4-4-4-------|

D|---------------------------------------------------------------------------|
A|---------------------------------------------------------------------------|
F|-4-4-4-4-4-4-4-4-4-4-4-4-4-6-6-6-6-8-8-8-8-8-8-8-8-8-6-6-6-6-6-6-6-6-------|
C|-4-4-4-4-4-4-4-4-4-4-4-4-4-6-6-6-6-8-8-8-8-8-8-8-8-8-6-6-6-6-6-6-6-6-------|
G|-2-2-2-2-2-2-2-2-2-2-2-2-2-4-4-4-4-6-6-6-6-6-6-6-6-6-4-4-4-4-4-4-4-4-------|
C|---------------------------------------------------------------------------|

Then...


D|---------------------------------------------------------------------------|
A|---------------------------------------------------------------------------|
F|-4-4-4-4-4-4-4-4-4-4-4-4-4-6-6-6-6-8-8-8-8-8-8-8-8-8-8-8-8-8---------------|
C|-4-4-4-4-4-4-4-4-4-4-4-4-4-6-6-6-6-8-8-8-8-8-8-8-8-8-8-8-8-8---------------|
G|-2-2-2-2-2-2-2-2-2-2-2-2-2-4-4-4-4-6-6-6-6-6-6-6-6-6-6-6-6-6---------------|
C|---------------------------------------------------------------------------|

D|---------------------------------------------------------------------------|
A|---------------------------------------------------------------------------|
F|---------------------------------------------------------------------------|
C|-6-6-6-6-6-6-6-6-6-6-6-6-6-6-6-6-9-9-9-9-9-9-9-9-11-11-11-11-11-11-11-11---|
G|-6-6-6-6-6-6-6-6-6-6-6-6-6-6-6-6-9-9-9-9-9-9-9-9-11-11-11-11-11-11-11-11---|
C|-6-6-6-6-6-6-6-6-6-6-6-6-6-6-6-6-9-9-9-9-9-9-9-9-11-11-11-11-11-11-11-11---|

Then the little mini pre-chorus...

Lead Guitar (Repeat Twice)

D|---------------------------------------------------------------------------|
A|---------------------------------------------------------------------------|
F|-11-11-11-11-11-11-6-6-6-6-6-6-6-6-6-6-------------------------------------|
C|-x--x--x--x--x--x--x-x-x-x-x-x-x-x-x-x-------------------------------------|
G|-9--9--9--9--9--9--4-4-4-4-4-4-4-4-4-4-------------------------------------|
C|---------------------------------------------------------------------------|

w/ the little palm muting with the rhythm...

D|-x--x-x--x-x-x--x-x-x------------------------------------------------------|
A|-x--x-x--x-x-x--x-x-x------------------------------------------------------|
F|-x--x-x--x-x-x--x-x-x------------------------------------------------------|
C|-x--x-x--x-x-x--x-x-x------------------------------------------------------|
G|-x--x-x--x-x-x--x-x-x------------------------------------------------------|
C|-x--x-x--x-x-x--x-x-x------------------------------------------------------|

Then after this is the Chorus, then the Pre-Chorus, and thats all!

I hope this tab helped out! I saw that there wasn't a tab for it so I decided
this would be a good song to tab out for my first tab! (Yep, this is my first!)
Anyways, I hope this helped! It's probably not 100% accurate, but its 
99.99% accurate! 


************************************

| /   slide up
| \   slide down
| h   hammer-on
| p   pull-off
| ~   vibrato
| +   harmonic
| x   Mute note
| b   Bend
| pb  Pre-bend
| br  Bend release
| pbr Pre-bend release
| brb Bend release bend
| []  Palm Mute

************************************
Suggest correction
comments
print report bad tab
1 comment total.
0 reply
maxpowweer 618 Mar 11, 2014 07:24 AM

Nice work! 5/5 for me

guest
You may want to rate the tab now too:
select rating
Wanna post a correction for this tab? Suggest correction