Oops, an error
Loading. Please wait.

Monument Tab

version 2
version 2
11,763 views 1 this week
1 commentread comment
1 2 3 4 5
accurate
x 4
add to favorites
launch autoscroll
font size
0
reset
how to read this tab
guitar tuner
Autoscroll
slow
fast
+/-
esc
set tempo
stop
Help us to improve Ultimate-Guitar.com Take our survey!
×
Author
Tuning
C G C F A D
Artist: A Day To Remember
Song: Monument
Tune: Dropped C


I'm 100% sure that this is correct. but if you disagree, please comment me/correct me. 
Rate =D thanks


Intro.
D|----------------------------------------|
A|----------------------------------------|
F|7-7-7-9--9--9--7-7-7-9--9--9--9--9--9---|    x2
C|9-9-9-10-10-10-9-9-9-10-10-10-10-10-10--|
G|----------------------------------------|
C|----------------------------------------|

D|-------------------------------------------------| \
A|-------------------------------------------------|  |
F|-------------------------------------------------|  |
C|3-3-3-3-3-3-3-3-3-3-3-3-5-5-5-5-5-5-5-5-5-5-5-5--|  |
G|3-3-3-3-3-3-3-3-3-3-3-3-5-5-5-5-5-5-5-5-5-5-5-5--|  |
C|3-3-3-3-3-3-3-3-3-3-3-3-5-5-5-5-5-5-5-5-5-5-5-5--|  |
                                                       x2
D|-----------------------------------------|          |
A|-----------------------------------------|          |
F|------9--9--9--------7-7-7-7/9--9--------|          |
C|------10-10-10-------9-9-9-9/10-10-10----|          |
G|7-7-7----------7-7-7---------------10 x16|          |
C|7-7-7----------7-7-7---------------10----|         /


Verse
D|--------------------------------------------------------------------------|
A|--------------------------------------------------------------------------|
F|--------------------------------------------------------------------------|
C|--------------------------------------------------------------------------|x2
G|333-333-3333333333-333-333-33333333777-777-77777777777-777-777-77777777777|
C|333-333-3333333333-333-333-33333333777-777-77777777777-777-777-77777777777|
PM..........................................................................

Chorus
D|-----------------------------------------------| \
A|-----------------------------------------------|  |
F|-----------------------------------------------|  |
C|3-3-3-3-3-3-3-3-3-3-3-3-5-5-5-5-5-5-5-5-5-5-5-5|  |
G|3-3-3-3-3-3-3-3-3-3-3-3-5-5-5-5-5-5-5-5-5-5-5-5|  |
C|3-3-3-3-3-3-3-3-3-3-3-3-5-5-5-5-5-5-5-5-5-5-5-5|  |
                                                     x2
D|-----------------------------------------|        |
A|-----------------------------------------|        |
F|------9--9--9--------7-7-7-7/9--9--------|        |
C|------10-10-10-------9-9-9-9/10-10-10----|        |
G|7-7-7----------7-7-7---------------10 x16|        |
C|7-7-7----------7-7-7---------------10----|       /

(let that A#5 chord ring out second time)

(right before the verse)
D|----|
A|----|
F|----|
C|----|
G|3333|
C|3333|
PM....

Verse 2
D|-----------------------------------------------|
A|-----------------------------------------------|
F|-----------------------------------------------|
C|3-3-3-3-3-3-3-3-3-3-3-3-7-7-7-7-7-7-7-7-7-7-7-7| x4
G|3-3-3-3-3-3-3-3-3-3-3-3-7-7-7-7-7-7-7-7-7-7-7-7|
C|3-3-3-3-3-3-3-3-3-3-3-3-7-7-7-7-7-7-7-7-7-7-7-7|

Chorus
D|-----------------------------------------------| \
A|-----------------------------------------------|  |
F|-----------------------------------------------|  |
C|3-3-3-3-3-3-3-3-3-3-3-3-5-5-5-5-5-5-5-5-5-5-5-5|  |
G|3-3-3-3-3-3-3-3-3-3-3-3-5-5-5-5-5-5-5-5-5-5-5-5|  |
C|3-3-3-3-3-3-3-3-3-3-3-3-5-5-5-5-5-5-5-5-5-5-5-5|  |
                                                     x2
D|-----------------------------------------|        |
A|-----------------------------------------|        |
F|------9--9--9--------7-7-7-7/9--9--------|        |
C|------10-10-10-------9-9-9-9/10-10-10----|        |
G|7-7-7----------7-7-7---------------10 x16|        |
C|7-7-7----------7-7-7---------------10----|       /

(right before the interlude)
D|---|
A|---|
F|---|
C|7~~|
G|5~~|
C|---|

Interlude
D|------------------------------------------------|--------------------------------|
A|------------------------------------------------|--------------------------------|
F|------------------------------------------------|--------------------------------|
C|777777777777799910101010101010101010101010101010|--------------------------------|
G|55555555555557778-8-8-8-8-8-8-8-8-8-8-8-8-8-8-8-|77777777777777775555555555555555|
C|------------------------------------------------|77777777777777775555555555555555|
  PM...............................................................................

D|------------------------------------------------|--------------------------------|
A|------------------------------------------------|--------------------------------|
F|------------------------------------------------|--------------------------------|
C|777777777777799910101010101010101010101010101010|--------------------------------|x2
G|55555555555557778-8-8-8-8-8-8-8-8-8-8-8-8-8-8-8-|77777777777777775555555555555555|
C|------------------------------------------------|77777777777777775555555555555555|

D|-----------------------------|--------------------------------|
A|-----------------------------|--------------------------------|
F|-----------------------------|--------------------------------|
C|777-777-7-9~101010-101010----|--------------------------------| x2
G|555-555-5-7~8-8-8--8-8-8-12\\|77777777777777775555555555555555|
C|-------------------------12\\|77777777777777775555555555555555|

Outro.[Let Chords Ring Out]
D|------------------------------|
A|------------------------------|
F|7----9---10---9----7-----5----|
C|x----x---x----x----x-----x----|
G|5----7---8----7----5-----3----|
C|------------------------------|
Suggest correction
What's this?
You can suggest a correction to this tab. Community and Mods will review your correction and vote to approve or reject it.
comments
print report bad tab
1 comment total.
0 reply
guitarskate37 91 wrote on August 8 2009, 06:12 pm

the intro is wrong and there are no lead parts.

guest
You may want to rate the tab now too:
select rating
Please do not post tabs as comments. Select "correction" instead!