Oops, an error
Loading. Please wait.

Monument Tab

version 3
version 3
27,672 views 3 this week
6 commentsread comments
1 2 3 4 5
accurate
x 9
add to favorites
launch autoscroll
font size
0
reset
how to read this tab
guitar tuner
Autoscroll
slow
fast
+/-
esc
set tempo
stop
Help us to improve Ultimate-Guitar.com Take our survey!
×
Author
Difficulty
Tuning
novice
C G C F A D
Band: A Day To Remember
Song: "Monument"
Album: For Those Who Have Heart
 
Tabbed by: Sarah M.
E-mail: autumnoffering@hotmail.com

TUNING: DROP C![CGCFAD] (it's not standard tuning,
                         I just forgot to change it.)
                         
Notes: Not the best tab out there, but I tried.
       Sorry, it's confusing and messy.


e|--------------------------------------------------|
B|--------------------------------------------------|
G|-7--7--7--9--9--9--7--7--7--9--9--9--9--9--9--9---|
D|-10-10-10-10-10-10-10-10-10-10-10-10-10-10-10-10--|x2
A|--------------------------------------------------|
E|--------------------------------------------------|



e|--------------------------------------------|
B|--------------------------------------------|
G|--------------------------------------------|
D|----------3333333333333333-5555555555555555-|
A|-10-8-7-5-3333333333333333-5555555555555555-|
E|----------3333333333333333-5555555555555555-|


e|-------------------------------------------------------------------|
B|-------------------------------------------------------------------|
G|-------------------------------------------------------------------|
D|-777-10-10-10-777-9-9-9-9h10-10-10-10-1010101010-10101010-10101010-|x2 
A|-777----------777------------------10-1010101010-10101010-10101010-|
E|-777----------777------------------10-1010101010-10101010-10101010-|



  verse1
e|----------------------------------------------------------|-------|
B|----------------------------------------------------------|-------|
G|----------------------------------------------------------|-------|
D|----------------------------------------------------------|-------|x2
A|-333-333-33333333-333-33-33333333-777-777-77777777-777-77-|--12\--|
E|-333-333-33333333-333-33-33333333-777-777-77777777-777-77-|--12\--|
   ... ... ........ ... .. ........ ... ... ........ ... ..

e|----------------------|
B|----------------------|
G|-------9----7h9-------|
D|-10-10---10-----10-10-|gtr2 comes in with this 2nd time.
A|----------------------|
E|----------------------|
   .  .    .      .  .


 
  Chorus x2
  gtr1
e|----------------------------------------------------------------------|
B|----------------------------------------------------------------------|
G|----------------------------------------------------------------------|
D|-3333333333333333-5555555555555555--777-10-10-10-777-9-9-9-9h10-10-10-|
A|-3333333333333333-5555555555555555--777----------777------------------|
E|-3333333333333333-5555555555555555--777----------777------------------|


e|----------------------------------|---------|
B|----------------------------------|---------|
G|----------------------------------|---------|
D|-10-1010101010-10101010-10101010--|----3~---|<--2nd time
A|-10-1010101010-10101010-10101010--|----3~---|
E|-10-1010101010-10101010-10101010--|----3~---|

                                     gtr2
e|----------------------------------|----------------|
B|----------------------------------|----7----9------|
G|----------------------------------|------10---10---|
D|----------------------------------|----------------|x4
A|----------------------------------|----------------|
E|----------------------------------|----------------|



           verse2
e|--------|--------------------------|
B|--------|--------------------------|                    
G|--------|--------------------------|
D|--3333--|-55-5-55-5-5-5-55-5-555-5-|
A|--3333--|-33-3-33-3-3-3-33-3-333-3-|          
E|--3333--|-33-3-33-3-3-3-33-3-333-3-|
    ....    ..   ..   .   ..   ...

E|--------------------------------------------------------|          
B|--------------------------------------------------------| 
G|--------------------------------------------------------|           
D|-10-10--10--10-10--10-10-10--10-10--10--10-10--10-10-10-|x4         
A|-7--7---7---7--7---7--7--7---7--7---7---7--7---7--7--7--|
E|-7--7---7---7--7---7--7--7---7--7---7---7--7---7--7--7--|
   .  .       .  .      .      .  .       .  .      .
                                                                      
  gtr2 comes in after 2nd time
e|--------------------------------------|
B|-------------333-555-333-55555555-333-|<-play 3 times
G|-------------555-555-555-55555555-333-|
D|--------------------------------------|
A|-5/7-7--3-3-3-------------------------|
E|--------------------------------------|
                                                                   
e|------------------|
B|-666-555-33333333-|
G|-555-555-55555555-|
D|------------------|
A|------------------|
E|------------------|
                                                                     



 Chorus x2
e|----------------------------------------------------------------------|
B|----------------------------------------------------------------------|
G|----------------------------------------------------------------------|
D|-3333333333333333-5555555555555555--777-10-10-10-777-9-9-9-9h10-10-10-|
A|-3333333333333333-5555555555555555--777----------777------------------|
E|-3333333333333333-5555555555555555--777----------777------------------|


e|----------------------------------|---------|
B|----------------------------------|---------|
G|----------------------------------|----12~--|
D|-10-1010101010-10101010-10101010--|----12~--|<--2nd time
A|-10-1010101010-10101010-10101010--|----12~--|
E|-10-1010101010-10101010-10101010--|---------|




e|--------------------------------------------------------------|    
B|--------------------------------------------------------------|     
G|--------------------------------------------------------------|    
D|12121212121212121212121212-14-15151515151515151515151515151515|      
A|12121212121212121212121212-14-15151515151515151515151515151515|     
E|12121212121212121212121212-14-15151515151515151515151515151515|     
  . . . . . . . . . . . . .  .  . . . . . . . . . . . . . . . .

gtr2 x4
e|-------------------------------------------------|
B|--------------------------------------5--5--5----|
G|--5--5--5--5--5--5--5--5--7--7--7--7-----------4-|
D|-------------------------------------------------|
A|-------------------------------------------------|
E|-------------------------------------------------|        
    .  .  .  .  .  .  .  .  .  .  .  .  .  .  .  .  
                                                                   
e|-----------------------------------------------------------------|  
B|-----------------------------------------------------------------|  
G|-----------------------------------------------------------------| 
D|-7-7-7-7-7-7-7-7-7-7-7-7-7-7-7-7-5-5-5-5-5-5-5-5-5-5-5-5-5-5-5-5-|  
A|-7-7-7-7-7-7-7-7-7-7-7-7-7-7-7-7-5-5-5-5-5-5-5-5-5-5-5-5-5-5-5-5-| 
E|-7-7-7-7-7-7-7-7-7-7-7-7-7-7-7-7-5-5-5-5-5-5-5-5-5-5-5-5-5-5-5-5-| 
   . . . . . . . . . . . . . . . . . . . . . . . . . . . . . . . .   
 

e|--------------------------------------------------------------|    
B|--------------------------------------------------------------|     
G|-7-7-7-7-7-7-7-7-7-7-7-7-7-9-10101010101010101010101010101010-|    
D|-7-7-7-7-7-7-7-7-7-7-7-7-7-9-10101010101010101010101010101010-|      
A|-5-5-5-5-5-5-5-5-5-5-5-5-5-7-8-8-8-8-8-8-8-8-8-8-8-8-8-8-8-8--|     
E|--------------------------------------------------------------|

 gtr2 repeat as many times necessary
e|---------------------------------|i cant really hear
B|-------8-------------------------|what gtr2 is playing,
G|-5-7-5---7-5-7--4-5-4-5--7-5-4-5-|so this is something
D|---------------------------------|i made up to go along
A|---------------------------------|with gtr1. 
E|---------------------------------|

e|-----------------------------------------------------------------|  
B|-----------------------------------------------------------------|  
G|-----------------------------------------------------------------| 
D|-7-7-7-7-7-7-7-7-7-7-7-7-7-7-7-7-5-5-5-5-5-5-5-5-5-5-5-5-5-5-5-5-|x2 
A|-7-7-7-7-7-7-7-7-7-7-7-7-7-7-7-7-5-5-5-5-5-5-5-5-5-5-5-5-5-5-5-5-| 
E|-7-7-7-7-7-7-7-7-7-7-7-7-7-7-7-7-5-5-5-5-5-5-5-5-5-5-5-5-5-5-5-5-|



e|------------------------------------------------------|
B|------------------------------------------------------|
G|------------------------------------------------------|
D|------------------------------------------------------|
A|-12-12-12--12-12-12--12-14--15-15-15--15-15-15--15\3--|
E|-12-12-12--12-12-12--12-14--15-15-15--15-15-15--15\3--|
   .  .  .   .  .  .          .  .  .   .  .  .

e|-----------------------------------------------------------------|  
B|-----------------------------------------------------------------|  
G|-----------------------------------------------------------------|
D|-7-7-7-7-7-7-7-7-7-7-7-7-7-7-7-7-5-5-5-5-5-5-5-5-5-5-5-5-5-5-5-5-|
A|-7-7-7-7-7-7-7-7-7-7-7-7-7-7-7-7-5-5-5-5-5-5-5-5-5-5-5-5-5-5-5-5-| 
E|-7-7-7-7-7-7-7-7-7-7-7-7-7-7-7-7-5-5-5-5-5-5-5-5-5-5-5-5-5-5-5-5-|

 
gtr1 outro
e|------------------------------|
B|------------------------------|
G|----7~--9~--10~--9~--7~--5~---|
D|----x~--x----x---x---x---x----|
A|----5~--7~---8~--7~--5~--3~---|
E|------------------------------|

 gtr2 outro
e|------------------------------|
B|------------------------------|
G|----7---4~--5~--9~--7~--5~----|
D|----x---x---x---x---x---x-----|
A|----5~--2~--3~--7~--5~--3~----|
E|------------------------------|        
                                      




Suggest correction
comments
print report bad tab
6 comments total. Showing first comments.
0 reply
todayFOREVER 93 wrote on March 31 2007, 05:45 pm

Correction:


At 1:25, I think it should be...
|----------------------------|
|----------------------------|
|----------------------------|
|--55-5-55-5-5-5--55-5-55-5--|
|--33-3-33-3-3-3--33-3-33-3--|
|--33-3-33-3-3-3--33-3-33-3--|
.. .. . .. ..

0 reply
todayFOREVER 93 wrote on March 31 2007, 05:46 pm

okay..well, that didn't turn out the way i wanted it to.
just try to match up the palm mutes.

0 reply
Destamoon 92 wrote on October 2 2008, 07:50 pm

best tab so far, good job! there is a second harmony during the chorus which is on the 7 and 9 on the G string.

guest
You may want to rate the tab now too:
select rating
Please do not post tabs as comments. Select "correction" instead!