Oops, an error
Loading. Please wait.

Monument Tab

version 4
version 4
101,893 views 48 this week
5 commentsread comments
1 2 3 4 5
x 35
add to favorites
launch autoscroll
font size
0
reset
how to read this tab
guitar tuner
Autoscroll
slow
fast
+/-
esc
set tempo
stop
Help us to improve Ultimate-Guitar.com Take our survey!
×
Author
Difficulty
Tuning
novice
C G C F A D
----------------------------------------------------------------------------
Monument - A Day To Remember
----------------------------------------------------------------------------
Artist: A Day To Remember
Song: Monument
Album: For Those Who Have Heart
Tabbed by: Zach Kibbee
Email: Zach_Kibbee@yahoo.com
Tuning: Drop C

I am very certain that this is 100% accurate, but if you happen upon a mistake, send me 
correction. Enjoy!

Gtr1: [Intro]
    e  e  e  e  e  e  e  e  e  e  e  e  e  e  e  e
d|---------------------------------------------------|
A|---------------------------------------------------|
F|--7--7--7--9--9--9--7--7--7--9--9--9--9--9--9------|x2
C|--10-10-10-10-10-10-10-10-10-10-10-10-10-10-10-10--|
G|---------------------------------------------------|
C|---------------------------------------------------|

Gtr2 pick-up:
    e e  e  e e e e e
d|---------------------|
A|---------------------|
F|---------------------|
C|----10-10-8-8-7-7-5--|
G|---------------------|
C|---------------------|

Gtr1: [Pre-Verse]
   eeeeeeeeeeeeeeee eeeeeeeeeeeeeeee eee e  e  e  eee e e e e e  e  e
d|----------------------------------------------------------------------|
A|----------------------------------------------------------------------|
F|----------------------------------------------------------------------|
C|-3333333333333333-5555555555555555-777-10-10-10-777-9-9-9-9/10-10-10--|
G|-3333333333333333-5555555555555555-777----------777-------------------|
C|-3333333333333333-5555555555555555-777----------777-------------------|

   e e e  e e e  e e e  e e e  e  e  e  e (4 triplets + 2 duplets)
d|------------------------------------------|
A|------------------------------------------|
F|------------------------------------------|
C|-10--10-10--10-10--10-10--10-10-10-10-10--|
G|-10--10-10--10-10--10-10--10-10-10-10-10--|
C|-10--10-10--10-10--10-10--10-10-10-10-10--|

Gtr2: [Pre-Verse]
   eeeeeeeeeeeeeeee eeeeeeeeeeeeeeee eeeeeeeeeeeee eee eeeeeeeeeeeeeeee
d|-----------------------------------------------------------------------|
A|-8888888888888888-8888888888888888-------------------8888888888888888--|
F|-xxxxxxxxxxxxxxxx-xxxxxxxxxxxxxxxx----999---7777/999-xxxxxxxxxxxxxxxx--|
C|-5555555555555555-5555555555555555-777---777---------5555555555555555--|
G|-----------------------------------777---777---------------------------|
C|-----------------------------------777---777---------------------------|

Gtr1: [Verse 1] (Gtr2 does this until half way through the verse) x2
   sssshsssshssssssss sssshsssshssssssss sssshsssshssssssss sssshsss s W
d|--------------------------------------------------------------------|
A|--------------------------------------------------------------------|
F|--------------------------------------------------------------------|
C|--------------------------------------------------------------------|
G|-333--333--33333333-333--333--33333333-777--777--77777777-777--777--|
C|-333--333--33333333-333--333--33333333-777--777--77777777-777--777--|

Gtr2: [Second half of Verse 1]                           x2
   e  e e  e  e e e  e           e  e  e e  e e q
d|----------------------|     d|-------------------|
A|----------------------|     A|-------------------|
F|-------9----7h9-------| x3  F|-------9----7h9-7--| x1
C|-10-10---10-----10-10-|Then C|-10-10---10--------| Then
G|----------------------|     G|-------------------| Repeat
C|----------------------|     C|-------------------|

Gtr1: [Chorus]
   eeeeeeeeeeeeeeee eeeeeeeeeeeeeeee eee e  e  e  eee e e e e e  e  e
d|----------------------------------------------------------------------|
A|----------------------------------------------------------------------|
F|----------------------------------------------------------------------|
C|-3333333333333333-5555555555555555-777-10-10-10-777-9-9-9-9/10-10-10--|
G|-3333333333333333-5555555555555555-777----------777-------------------|
C|-3333333333333333-5555555555555555-777----------777-------------------|

   e e e  e e e  e e e  e e e  e  e  e  e (4 triplets + 2 duplets)
d|------------------------------------------|
A|------------------------------------------|
F|------------------------------------------|
C|-10--10-10--10-10--10-10--10-10-10-10-10--|
G|-10--10-10--10-10--10-10--10-10-10-10-10--|
C|-10--10-10--10-10--10-10--10-10-10-10-10--|

Gtr2: [Chorus]
   eeeeeeeeeeeeeeee eeeeeeeeeeeeeeee eeeeeeeeeeeee eee eeeeeeeeeeeeeeee
d|-----------------------------------------------------------------------|
A|-8888888888888888-8888888888888888-------------------8888888888888888--|
F|-xxxxxxxxxxxxxxxx-xxxxxxxxxxxxxxxx----999---7777/999-xxxxxxxxxxxxxxxx--|
C|-5555555555555555-5555555555555555-777---777---------5555555555555555--|
G|-----------------------------------777---777---------------------------|
C|-----------------------------------777---777---------------------------|

Gtr1: [Pre-Verse 2]
   e e e e e e e e e e e e e e e e
d|----------------------------------|
A|-3---5---3---5---3---5---3---5----|
F|---5---5---5---5---5---5---5---5--|x2
C|----------------------------------|
G|----------------------------------|
C|----------------------------------|

Gtr2: [Pre-Verse 2]
   W   e e e e e e e e W  W
d|----------------------------|
A|----------------------------|
F|----------------------------|
C|-3~~-------3-3-3-3----------|
G|-3~~-------3-3-3-3----------|
C|-3~~-------3-3-3-3----------|

Gtr1: [Verse 2] (Gtr2 does this until half way through the verse) x4
   eeeeeeeeeeeeeeee e e e e e e e e e e e e e e e e
d|---------------------------------------------------|
A|---------------------------------------------------|
F|---------------------------------------------------|
C|-5555555555555555-10101010101010101010101010101010-|
G|-3333333333333333-7-7-7-7-7-7-7-7-7-7-7-7-7-7-7-7--|
C|-3333333333333333-7-7-7-7-7-7-7-7-7-7-7-7-7-7-7-7--|

Gtr2: [Pick-up to 2nd half  Verse 2]
  e e e e e e e e            eeeeeeeeeeeeeeee
d|-----------------|      d|-------------------|
A|-----------------|      A|-3335553335553555--|
F|-----------------| Then F|-5555555555555555--|
C|-----------------|      C|-------------------|
G|--5/7-5-5-7---7--|      G|-------------------|
C|-----------------|      C|-------------------|

Gtr1: [Chorus]
   eeeeeeeeeeeeeeee eeeeeeeeeeeeeeee eee e  e  e  eee e e e e e  e  e
d|----------------------------------------------------------------------|
A|----------------------------------------------------------------------|
F|----------------------------------------------------------------------|
C|-3333333333333333-5555555555555555-777-10-10-10-777-9-9-9-9/10-10-10--|
G|-3333333333333333-5555555555555555-777----------777-------------------|
C|-3333333333333333-5555555555555555-777----------777-------------------|

   e e e  e e e  e e e  e e e  e  e  e  e (4 triplets + 2 duplets)
d|------------------------------------------|        |--------|
A|------------------------------------------|        |--------|
F|------------------------------------------| After  |--------|
C|-10--10-10--10-10--10-10--10-10-10-10-10--| 2nd    |-12~~~--|
G|-10--10-10--10-10--10-10--10-10-10-10-10--| Time   |-12~~~--|
C|-10--10-10--10-10--10-10--10-10-10-10-10--|        |-12~~~--|

Gtr2: [Chorus]
   eeeeeeeeeeeeeeee eeeeeeeeeeeeeeee eeeeeeeeeeeee eee eeeeeeeeeeeeeeee
d|-----------------------------------------------------------------------|
A|-8888888888888888-8888888888888888-------------------8888888888888888--|
F|-xxxxxxxxxxxxxxxx-xxxxxxxxxxxxxxxx----999---7777/999-xxxxxxxxxxxxxxxx--|
C|-5555555555555555-5555555555555555-777---777---------5555555555555555--|
G|-----------------------------------777---777---------------------------|
C|-----------------------------------777---777---------------------------|

[Drum and Bass Solo Then]

Gtr1: [Bridge] x4
   e e e e e e e e e e e e e e e e  e e e e e e e e e e e e e e e e
d|--------------------------------------------------------------------|
A|--------------------------------------------------------------------|
F|--------------------------------------------------------------------|
C|-12121212121212121212121212141414-15151515151515151515151515151515--|
G|-12121212121212121212121212141414-15151515151515151515151515151515--|
C|-12121212121212121212121212141414-15151515151515151515151515151515--|

   e e e e e e e e e e e e e e e e e e e e e e e e e e e e e e e e
d|-----------------------------------------------------------------|
A|-----------------------------------------------------------------|
F|-----------------------------------------------------------------|
C|-7-7-7-7-7-7-7-7-7-7-7-7-7-7-7-7-5-5-5-5-5-5-5-5-5-5-5-5-5-5-5-5-|
G|-7-7-7-7-7-7-7-7-7-7-7-7-7-7-7-7-5-5-5-5-5-5-5-5-5-5-5-5-5-5-5-5-|
C|-7-7-7-7-7-7-7-7-7-7-7-7-7-7-7-7-5-5-5-5-5-5-5-5-5-5-5-5-5-5-5-5-|

Gtr2: [Bridge]:
   e e e e e e e e e e e e e e e e
d|----------------------------------|
A|-------------------------5-5-5----|
F|-5-5-5-5-5-5-5-5-7-7-7-7-------4--|x4
C|----------------------------------|
G|----------------------------------|
C|----------------------------------|

   e e e e e e e e e e e e e e e e
d|----------------------------------|
A|-------8-----------8-------5------|
F|-7-5-7---7-5-7-5-7---7-5-7---7-5--|x4
C|----------------------------------|
G|----------------------------------|
C|----------------------------------|

Gtr1 & Gtr2: [Breakdown] x2
   s s s s h s s s s q q e e q  s s s s h s s s s q q h
d|---------------------------------------------------------|
A|---------------------------------------------------------|
F|---------------------------------------------------------|
C|---------------------------------------------------------|
G|-121212----121212------1214~~-151515----151515------15\--|
C|-121212----121212------1214~~-151515----151515------15\--|

   e e e e e e e e e e e e e e e e e e e e e e e e e e e e e e e e
d|-----------------------------------------------------------------|
A|-----------------------------------------------------------------|
F|-----------------------------------------------------------------|
C|-7-7-7-7-7-7-7-7-7-7-7-7-7-7-7-7-5-5-5-5-5-5-5-5-5-5-5-5-5-5-5-5-|
G|-7-7-7-7-7-7-7-7-7-7-7-7-7-7-7-7-5-5-5-5-5-5-5-5-5-5-5-5-5-5-5-5-|
C|-7-7-7-7-7-7-7-7-7-7-7-7-7-7-7-7-5-5-5-5-5-5-5-5-5-5-5-5-5-5-5-5-|

Gtr1: [Outro]
   W  H  H  W     W    W W  W W  W
d|----------------------------------|
A|----------------------------------|
F|-7-----9--10---------9----7----5--|
C|-x-----x--x----------x----x----x--|
G|-5-----7--8----------7----5----3--|
C|----------------------------------|

Gtr2: [Outro]
   W  H  H  W  H q e e W W  W W  W
d|----------------------------------|
A|----------------------------------|
F|-10----4--5--------9-9----7----5--|
C|-x-----x--x--------x-x----x----x--|
G|-8-----2--3--------7-7----5----3--|
C|----------------------------------|

************************************
Timing Notation (above staff)*******

| W  whole note
| H  half note
| q  quarter note
| e  eighth note
| s  sixteenth note
| t  thirty-second note
|
| /  Slide up
| x  Dead note
| h  Hammer-on
| ~  Vibrato
| \  Slide down

************************************
Suggest correction
comments
print report bad tab
5 comments total. Showing first comments.
+6 reply
elleild 121 Jan 07, 2010 10:18 AM

Intro is

d|-------------------------------|
A|---333-555-333-555555----------|
F|---555-555-555-555555----------|x2
C|-------------------------------|
G|-------------------------------|
C|-------------------------------|

Then
d|-------------------------------|
A|-------------------------------|
F|-------------------------------|x2
C|--5-5-3-3-2-2-0----------------|
G|-------------------------------|
C|-------------------------------|

0 reply
guitarbabe654 36 May 06, 2010 07:39 PM

Nice tab sounds great! 5 stars for sure!

0 reply
shadowdream 15 Aug 20, 2013 05:53 AM

d|-------------------------------|
A|---333-555-333-555555----------|
F|---555-555-555-555555----------|x2
C|-------------------------------|
G|-------------------------------|
C|-------------------------------|

Is the same as

d|---------------------------------------------------|
A|---------------------------------------------------|
F|--7--7--7--9--9--9--7--7--7--9--9--9--9--9--9------|x2
C|--10-10-10-10-10-10-10-10-10-10-10-10-10-10-10-10--|
G|---------------------------------------------------|
C|---------------------------------------------------|

But the

d|-------------------------------|
A|-------------------------------|
F|-------------------------------|x2
C|--5-5-3-3-2-2-0----------------|
G|-------------------------------|
C|-------------------------------|

sounds better, thats right.

guest
You may want to rate the tab now too:
select rating
Wanna post a correction for this tab? Suggest correction