Oops, an error
Loading. Please wait.

Mr Highways Thinking About The End Bass Tab

version 1
version 1

Whole song

Interactive

25,045 views 1 this week
2 commentsread comments
1 2 3 4 5
x 6
add to favorites
launch autoscroll
font size
0
reset
guitar tuner
Autoscroll
slow
fast
+/-
esc
set tempo
stop
Help us to improve Ultimate-Guitar.com Take our survey!
×
Author
Difficulty
Tuning
novice
A# F A# D# G C
-------------------------------------------------------------------------------
			     Mr. Highway's Thinking About the End - ADTR
-------------------------------------------------------------------------------

Tabbed By : heywhatsupdude
e-mail: jaredmcr5@hotmail.com

Tuning: Drop A#

D|---------------------------------------------------------------------------|
A#|--------------------------------------------------------------------------|
F|---------------------------------------------------------------------------|
A#|--0-0-0-0-0-0-000-000--0-0-0-0-0-0-000-000-0-0-0-0-0-0-000-000-0-0-0-0-0-0|
WAKE UP!
D|---------------------------------------------------------------------------|
A#|--------------------------------------------------------------------------|
F|---------------------------------------------------------------------------|
A#|--0-0-0-0-0-0-000-000--0-0-0-0-0-0-000-000-0-0-0-0-0-0-000-000-0-0-0-0-0-0|

D|---------------------------------------------------------------------------|
A#|--------------------------------------------------------------------------|
F|---------------------------------------------------------------------------|
A#|-000-000---0---0---0---0--------------------------------------------------|

D|---------------------------------------------------------------------------|
A#|--------------------------------------------------------------------------|
F|---5-8---3-7-------------5-3----5-8---3-7-------------10-8-----------------|
A#|-0-----0-----0-0-0-0-0-0------0-----0-----0-0-0-0-0-0---------------------|

D|---------------------------------------------------------------------------|
A#|--------------------------------------------------------------------------|
F|---5-8---3-7-------------5-3----5-8---3-7----------------------------------|
A#|-0-----0-----0-0-0-0-0-0------0-----0-----0-0-0-0-0-0---------------------|

D|---------------------------------------------------------------------------|
A#|--------------------------------------------------------------------------|
F|---5-8---3-7-------------5-3----5-8---3-7-------------10-8-----------------|
A#|-0-----0-----0-0-0-0-0-0------0-----0-----0-0-0-0-0-0---------------------|

D|---------------------------------------------------------------------------|
A#|--------------------------------------------------------------------------|
F|---5-8---3-7-------------5-3----5-8---3-7-------------10-8-----------------|
A#|-0-----0-----0-0-0-0-0-0------0-----0-----0-0-0-0-0-0---------------------|

D|---------------------------------------------------------------------------|
A#|--------------------------------------------------------------------------|
F|---------------------------------------------------------------------------|
A#|-888888888-5555555-7777777777777777---------------------------------------|

D|---------------------------------------------------------------------------|
A#|--------------------------------------------------------------------------|
F|---------------------------------------------------------------------------|
A#|-888888888-5555555-000000-0-0-0--000000-0-0-0-----------------------------|

D|---------------------------------------------------------------------------|
A#|--------------------------------------------------------------------------|
F|---------------------------------------------------------------------------|
A#|-888888888-5555555-7777777777777777---------------------------------------|

D|---------------------------------------------------------------------------|
A#|--------------------------------------------------------------------------|
F|---------------------------------------------------------------------------|
A#|-888888888-5555555-000000-0-0-0--000000-0-0-0-----------------------------|

D|---------------------------------------------------------------------------|
A#|--------------------------------------------------------------------------|
F|---------------------------------------------------------------------------|
A#|--0---0---0---0-----------------------------------------------------------|

D|---------------------------------------------------------------------------|
A#|--------------------------------------------------------------------------|
F|---5-8---3-7-------------5-3----5-8---3-7-------------10-8-----------------|
A#|-0-----0-----0-0-0-0-0-0------0-----0-----0-0-0-0-0-0---------------------|

D|---------------------------------------------------------------------------|
A#|--------------------------------------------------------------------------|
F|---5-8---3-7-------------5-3----5-8---3-7----------------------------------|
A#|-0-----0-----0-0-0-0-0-0------0-----0-----0-0-0-0-0-0---------------------|

D|---------------------------------------------------------------------------|
A#|--------------------------------------------------------------------------|
F|---5-8---3-7-------------5-3----5-8---3-7-------------10-8-----------------|
A#|-0-----0-----0-0-0-0-0-0------0-----0-----0-0-0-0-0-0---------------------|

D|---------------------------------------------------------------------------|
A#|--------------------------------------------------------------------------|
F|---5-8---3-7-------------5-3----5-8---3-7-------------10-8-----------------|
A#|-0-----0-----0-0-0-0-0-0------0-----0-----0-0-0-0-0-0---------------------|

D|---------------------------------------------------------------------------|
A#|--------------------------------------------------------------------------|
F|---------------------------------------------------------------------------|
A#|-888888888-5555555-7777777777777777---------------------------------------|

D|---------------------------------------------------------------------------|
A#|--------------------------------------------------------------------------|
F|---------------------------------------------------------------------------|
A#|-888888888-5555555-000000-0-0-0--000000-0-0-0-----------------------------|

D|---------------------------------------------------------------------------|
A#|--------------------------------------------------------------------------|
F|---------------------------------------------------------------------------|
A#|-888888888-5555555-7777777777777777---------------------------------------|

D|---------------------------------------------------------------------------|
A#|--------------------------------------------------------------------------|
F|---------------------------------------------------------------------------|
A#|-888888888-5555555-000000-0-0-0--000000-0-0-0-000000-0-0-0-000000-0-0-0---|


D|---------------------------------------------------------------------------|
A#|--------------------------------------------------------------------------|
F|---------------------------------------------------------------------------|
A#|-0---00000000-0-0-0--000000-0-000000-0--00000000-0-0-0--------------------|
DISRESPECT YOUR SURROUNDINGS!
D|---------------------------------------------------------------------------|
A#|--------------------------------------------------------------------------|
F|---------------------------------------------------------------------------|
A#|-00-00-00-00-00-00-00000000--00-00-00-00-00-00-00-------------------------|

D|---------------------------------------------------------------------------|
A#|--------------------------------------------------------------------------|
F|---------------------------------------------------------------------------|
A#|-00000000-0--0-0--00------------------------------------------------------|
Just do the last part until the clean guitar starts back up.


| /  slide up
| \  slide down
| h  hammer-on
| p  pull-off
| ~  vibrato
| +  harmonic
| x  Mute note
===============================================================================
Suggest correction
comments
print report bad tab
2 comments total.
+1 reply
petey1993 52 Aug 26, 2010 11:46 PM

theres a bit of bass after the breakdown :P

+1 reply
maxpowweer 618 Apr 25, 2013 08:17 PM

I think for the verse, this makes a bit more sense, tuning wise:
Verse
D|------------------------------------------------------------|
A|------4-----2-----------------------4----2------------------|
E|----6-----4----------------6-4----6----4----------------11-9|
A#|-0-----0-----0-0-0-0-0-0------0-----0-----0-0-0-0-0-0------|

and as for the outro bit mentioned before:
Outro
D|-----------------|
A|-----------------|
E|-----------------|
A#|8--10--12--14-13|
Repeat until it fades out

guest
You may want to rate the tab now too:
select rating
Wanna post a correction for this tab? Suggest correction