Oops, an error
Loading. Please wait.

Negative Space Bass Tab

58 views 1 this week
no commentswrite comment
1 2 3 4 5
2 more votes to show rating
add to favorites
launch autoscroll
font size
0
reset
guitar tuner
Autoscroll
slow
fast
+/-
esc
set tempo
stop
Help us to improve Ultimate-Guitar.com Take our survey!
×
Author
Difficulty
Tuning
novice
C G C F A D
A Day To Remember - Negative Space

Tabbed by: Ash (XxThreeCheersxX)
email: burdickash@gmail.com

Tuning: CGCF

Intro
F|---------------------------------|
C|---------------------------------|
G|---------------------------------| x 5
C|-9-9-9-5-5-5-5-5-5-5-5-5-5-5-5-5-|

Verse 
F|---------------------------------|
C|---------------------------------|
G|---------------------------------| x 4
C|-9-9-9-5-5-5-5-5-5-5-5-5-5-5-5-5-|

Chorus
F|-----------------------------------------------------------------|
C|-----------------------------------------------------------------|
G|-----------------------------------------------------------------|
C|-5-5-5-5-5-5-5-5-5-5-5-5-5-5-5-5-2-2-2-2-2-2-2-2-2-2-2-2-2-4-4-4-|

F|-----------------------------------------------------------------|
C|-----------------------------------------------------------------|
G|---------------------------5-5-5---------------------------------|
C|-5-5-5-5-5-5-5-5-5-5-5-5-5-------2-2-2-2-2-2-2-2-2-2-2-2-2-4-4-4-|

F|-----------------------------------------------------------------|
C|-----------------------------------------------------------------|
G|-----------------------------------------------------------------|
C|-5-5-5-5-5-5-5-5-5-5-5-5-5-5-5-5-2-2-2-2-2-2-2-2-2-2-2-2-2-2-2-2-|

"Everyone eventually lets you down"
F|-----------------------------------------------------------------|
C|-----------------------------------------------------------------|
G|-----------------------------------------------------------------| x 2
C|-0~------------2~-----------/14\-5-5-5-5-5-5-5-5-5-5-5-5-5-5-5-5-|

Verse (same as before)

Chorus (same as before)

Bridge
F|---------------------|
C|---------------------|
G|---------------------|
C|-9~------------------|

F|---------------------------------------------------------------------------------------|
C|---------------------------------------------------------------------------------------|
G|---------------------------------------------------------------------------------------|
C|-2-2~----------4-4~--------5-5~----------------7-7~----------------5-5~----------------|

F|-------------------------------------------------------------------------------|
C|-------------------------------------------------------------------------------|
G|-------------------------------------------------------------------------------|
C|-2-2~----------4-4~--------5-5~----------------7-7-7-7-7-7-7-7-7-7-7-7-7-7-7-7-|

F|-----------------------------------------------------------------|
C|-----------------------------------------------------------------|
G|-2-2-2-2-2-2-2-2-2-2-2-2-2-2-2-2---------------------------------|
C|---------------------------------2-2-2-2-2-2-2-2-2-2-4-4-4-4-4-4-|

F|-----------------------------------------------------------------|
C|-----------------------------------------------------------------|
G|-----------------------------------------------------------------|
C|-5-5-5-5-5-5-5-5-5-5-5-5-5-5-5-5-7-7-7-7-7-7-7-7-7-7-7-7-7-7-7-7-|

Final Chorus
Chorus
F|-----------------------------------------------------------------|
C|-----------------------------------------------------------------|
G|-----------------------------------------------------------------|
C|-5~-------------------------x-x--2---2-2-2-2-2---2-2-2-2-2-4-4-4-|

F|-----------------------------------------------------------------|
C|-----------------------------------------------------------------|
G|---------------------------5-5-5-7-7-7-7-7-7-7-7-7-7-7-7-7-------|
C|-5-5-5-5-5-5-5-5-5-5-5-5-5---------------------------------4-4-4-|

F|-----------------------------------------------------------------|
C|-----------------------------------------------------------------|
G|-----------------------------------------------------------------|
C|-5-5-5-5-5-5-5-5-5-5-5-5-5-5-5-5-2-2-2-2-2-2-2-2-2-2-2-2-2-2-2-2-|

"Everyone eventually lets you down"
F|-----------------------------------------------------------------|
C|-----------------------------------------------------------------|
G|-----------------------------------------------------------------| x 2
C|-0~------------2~-----------/14\-5-5-5-5-5-5-5-5-5-5-5-5-5-5-5-5-|

End on:
F|-----------------------------------------------------------------|
C|-----------------------------------------------------------------|
G|-----------------------------------------------------------------|
C|-0~--------------------------------------------------------------|


Happy playing!


************************************

| x   Dead note
| g   Grace note
| (n) Ghost note
| h   Hammer-on
| p   Pull-off
| r   Release
| >   Accented note
| t   Tapping
| b   Bend
| br  Bend release
| pb  Pre-bend
| pbr Pre-bend release
| /   Slide up
| \   Slide down
| ~   Vibrato
| s   Slap
| P   Pop
| PM  Palm mute
| TR  Trill
| N   Tremolo

************************************
Suggest correction
Give kudos to tab author, rate the tab!
1 2 3 4 5
comments
print report bad tab
guest
You may want to rate the tab now too:
select rating
Wanna post a correction for this tab? Suggest correction