Oops, an error
Loading. Please wait.

Nj Legion Iced Tea Bass Tab

version 2
version 2

Whole song

Interactive

1,047 views 1 this week
2 commentsread comments
1 2 3 4 5
1 last vote to show rating
add to favorites
launch autoscroll
font size
0
reset
guitar tuner
Autoscroll
slow
fast
+/-
esc
set tempo
stop
Help us to improve Ultimate-Guitar.com Take our survey!
×
Author
Tuning
C G C F A D
Intro
F|------------------------------------------------------------------|
C|------------------------------------------------------------------|
G|------------------------------------------------------------------|
C|-9-9999995-5555550-000000777-77779-999999555555550-000000777-777--|

Verse 0:16
F|-----------------------------------|---------------------------------|
C|o--------------------12--------12-o|---------------------------------|
G|o---------------------------------o|---------------------------------|
C|--0-0-0--0-0-0--00000-----0-0-0----|-9-9-9-9-9-9-9-5-5-5-5-5-5-5-5-0-|

F|-----------------------------------|---------------------------------|
C|o--------------------12--------12-o|---------------------------------|
G|o---------------------------------o|---------------0-0-0-0-0-0-0-0-2-|
C|--0-0-0--0-0-0--00000-----0-0-0----|-5-5-5-5-5-5-5-------------------|

Pre Chorus 0:35
F|-------------------------------------------------------------------|
C|-------------------------------------------------------------------|
G|-2-222-2-2-2-2204-4-444-4-4-4-42-----------------------------------|
C|--------------------------------42-222222222222445-5555557777777r--|

Chorus 0:51
F|----------------------------------------------------------------------|
C|----------------------------------------------------------------------|
G|-----2-222222----------------000000002-222222----------------00000000-|
C|-44----------555555550-000000----------------555555550-000000---------|

Verse 1:04
F|-----------------------------------|---------------------------------|
C|o--------------------12--------12-o|---------------------------------|
G|o---------------------------------o|---------------------------------|
C|--0-0-0--0-0-0--00000-----0-0-0----|-9-9-9-9-9-9-9-5-5-5-5-5-5-5-5-0-|

F|-----------------------------------|---------------------------------|
C|o--------------------12--------12-o|---------------------------------|
G|o---------------------------------o|---------------0-0-0-0-0-0-0-0-2-|
C|--0-0-0--0-0-0--00000-----0-0-0----|-5-5-5-5-5-5-5-------------------|

Pre Chorus 1:23
F|-------------------------------------------------------------------|
C|-------------------------------------------------------------------|
G|-2-222-2-2-2-2204-4-444-4-4-4-42-----------------------------------|
C|--------------------------------42-222222222222445-5555557777777r--|

Chorus 1:38
F|----------------------------------------------------------------------|
C|----------------------------------------------------------------------|
G|-----2-222222----------------000000002-222222----------------00000000-|
C|-44----------555555550-000000----------------555555550-000000---------|

F|------------------------------------------------------------------|
C|------------------------------------------------------------------|
G|-2-222222----------------000000002-222222----------------00000000-|
C|---------555555550-000000----------------555555550-000000---------|

Bridge 2:04
F|------------------------------------------------------------------|
C|------------------------------------------------------------------|
G|---------------------------------2-2222220-000000-----------------|
C|-2-222222222222225-55555555555555----------------5-55555555555-55-|

F|---------------------------------------------------------------------------------------|
C|-----------------------------------------------------------------------------------5~~-|
G|---------------------------------------------------------2--2-2-2-2-2-0--0-0-0-0-0-5~~-|
C|-2--2222-2-2-2-2-2-2-2-2-2-2-5--5555-5-5-5-5-5-5-5-5-5-5-------------------------------|

Breakdown 2:31 x4
F|---------------------------|
C|o-------------------------o|
G|o-5---------5-------------o|
C|----00-00-----00-0000000---|

Chorus 2:47
F|----------------------------------------------------------------------|
C|----------------------------------------------------------------------|
G|-----2-222222----------------000000002-222222----------------00000000-|
C|-44----------555555550-000000----------------555555550-000000---------|

F|------------------------------------------------------------------|
C|------------------------------------------------------------------|
G|-2-222222----------------000000002-222222----------------00000000-|
C|---------555555550-000000----------------555555550-000000---------|

Outro 3:13
F|--------------------------------------|
C|--------------------------------------|
G|-22222222----------------0000-00------|
C|---------5-5555550-000000---------0~~-|
Suggest correction
Give kudos to tab author, rate the tab!
1 2 3 4 5
comments
print report bad tab
2 comments total.
0 reply
izzybuck 10 Sep 03, 2015 12:54 PM

this sounds really good man good job

0 reply
wybor 10 Sep 03, 2015 12:58 PM

this sounds 100% to me

guest
You may want to rate the tab now too:
select rating
Wanna post a correction for this tab? Suggest correction