Oops, an error
Loading. Please wait.

Nj Legion Iced Tea Tab

version 2
version 2

Whole song

Interactive

91,830 views 42 this week
29 commentsread comments
1 2 3 4 5
x 31
add to favorites
launch autoscroll
font size
0
reset
how to read this tab
guitar tuner
Autoscroll
slow
fast
+/-
esc
set tempo
stop
Help us to improve Ultimate-Guitar.com Take our survey!
×
Author
Difficulty
Tuning
novice
C G C F A D
Drop C Tuning.
Rhythm Guitar & Lead

(Lead follows rhythm apart from the parts i've tab separately)

Instead of redoing every chorus ive just put parts in which tell you to repeat certain
They should be easy to follow!

Listen carefully to the song to find out the strumming patterns.


[Intro]

(0:00)
D|---------------------------------------|
A|---------------------------------------| 
F|-6-6-6/7-7-7-7/14-14-14-14/11-11-11-11-|
C|-x-x-x-x-x-x-x-x--x--x--x--x--x--x--x--|
G|-4-4-4/5-5-5-5/12-12-12-12/9--9--9--9--|(x1) For Rhythm Guitar 
C|---------------------------------------|(x5) For Lead Guitar

D|------------------------------------------------------------|
A|------------------------------------------------------------|
F|------------------------------------------------------------|
C|-9-9-9-9-9-9-9--5-5-5-5-5-5-5--0-0-0-0-0-0-0--7-7-7-7-7-7-7-| 
G|-9-9-9-9-9-9-9--5-5-5-5-5-5-5--0-0-0-0-0-0-0--7-7-7-7-7-7-7-|
C|-9-9-9-9-9-9-9--5-5-5-5-5-5-5--0-0-0-0-0-0-0--7-7-7-7-7-7-7-|(x2)


[Verse]

(0:16)
D|---------------------------------------------------------------------------------|
A|---------------------------------------------------------------------------------|
F|---------------------------------------------------------------------------------|
C|---------------------------------------------------------------------------------|
G|-0-0-0--0-0-0--0-0-0-0-0--12--0-0-0--12--0-0-0--0-0-0--0-0-0-0-0--12--0-0-0--12--|
C|-0-0-0--0-0-0--0-0-0-0-0------0-0-0------0-0-0--0-0-0--0-0-0-0-0------0-0-0------|
   . . .  . . .  . . . . .      . . .      . . .  . . .  . . . . .      . . .

D|------------------------------|
A|------------------------------|
F|------------------------------|
C|-9-9-9-9-9-9-9--5-5-5-5-5-5-5-|
G|-9-9-9-9-9-9-9--5-5-5-5-5-5-5-|
C|-9-9-9-9-9-9-9--5-5-5-5-5-5-5-|

D|---------------------------------------------------------------------------------|
A|---------------------------------------------------------------------------------|
F|---------------------------------------------------------------------------------|
C|---------------------------------------------------------------------------------|
G|-0-0-0--0-0-0--0-0-0-0-0--12--0-0-0--12--0-0-0--0-0-0--0-0-0-0-0--12--0-0-0--12--|
C|-0-0-0--0-0-0--0-0-0-0-0------0-0-0------0-0-0--0-0-0--0-0-0-0-0------0-0-0------|

D|------------------------------|
A|------------------------------|
F|------------------------------|
C|-5-5-5-5-5-5-5--7-7-7-7-7-7-7-|
G|-5-5-5-5-5-5-5--7-7-7-7-7-7-7-|
C|-5-5-5-5-5-5-5--7-7-7-7-7-7-7-|


[Pre-Chorus]

(0:35)
D|------------------------------------------------------|
A|------------------------------------------------------|
F|------------------------------------------------------|
C|--9-9--9-9-9--9--9--9--9-9---7-7--7-7-7--7--7--7--7-7-|
G|--9-9--9-9-9--9--9--9--9-9---7-7--7-7-7--7--7--7--7-7-|
C|--9-9--9-9-9--9--9--9--9-9---7-7--7-7-7--7--7--7--7-7-|


[Rhythm] 

(I'm not sure about the fours?) (0:42)
D|-------------------------------------------------------------|
A|-------------------------------------------------------------|
F|-------------------------------------------------------------|
C|-4-4-4-4-4-4-4--4-4-4-4-4-4-4--5-5-5-5-5-5-5--7-7-7-7-7-7-7--|
G|-4-4-4-4-4-4-4--4-4-4-4-4-4-4--5-5-5-5-5-5-5--7-7-7-7-7-7-7--|
C|-4-4-4-4-4-4-4--4-4-4-4-4-4-4--5-5-5-5-5-5-5--7-7-7-7-7-7-7--|


[Lead]

D|----------------------|
A|-15-14----12----------|
F|-------14----14-12-11-| 
C|----------------------|
G|----------------------|
C|----------------------|(x4)


[Chorus]

(0:48)
D|---------------------------------------|
A|---------------------------------------| 
F|-6-6-6/7-7-7-7/14-14-14-14/11-11-11-11-|
C|-x-x-x-x-x-x-x-x--x--x--x--x--x--x--x--|
G|-4-4-4/5-5-5-5/12-12-12-12/9--9--9--9--|(x1) For Rhythm Guitar 
C|---------------------------------------|(x5) For Lead Guitar

D|------------------------------------------------------------|
A|------------------------------------------------------------|
F|------------------------------------------------------------|
C|-9-9-9-9-9-9-9--5-5-5-5-5-5-5--0-0-0-0-0-0-0--7-7-7-7-7-7-7-| 
G|-9-9-9-9-9-9-9--5-5-5-5-5-5-5--0-0-0-0-0-0-0--7-7-7-7-7-7-7-|
C|-9-9-9-9-9-9-9--5-5-5-5-5-5-5--0-0-0-0-0-0-0--7-7-7-7-7-7-7-|(x8)


(Repeat)


[Verse]

(1:04)

[Pre-Chorus]

(1:23)


[Chorus 2]

(1:36)
D|---------------------------------------|
A|---------------------------------------| 
F|-6-6-6/7-7-7-7/14-14-14-14/11-11-11-11-|
C|-x-x-x-x-x-x-x-x--x--x--x--x--x--x--x--|(x1) For Rhythm Guitar
G|-4-4-4/5-5-5-5/12-12-12-12/9--9--9--9--|(x9) For Lead Guitar

D|------------------------------------------------------------|
A|------------------------------------------------------------|
F|------------------------------------------------------------|
C|-9-9-9-9-9-9-9--5-5-5-5-5-5-5--0-0-0-0-0-0-0--7-7-7-7-7-7-7-| 
G|-9-9-9-9-9-9-9--5-5-5-5-5-5-5--0-0-0-0-0-0-0--7-7-7-7-7-7-7-|
C|-9-9-9-9-9-9-9--5-5-5-5-5-5-5--0-0-0-0-0-0-0--7-7-7-7-7-7-7-|(x8)


[Bridge]

(2:05)


[Rhythm]

D|------------------------------------------------------------|
A|------------------------------------------------------------|
F|------------------------------------------------------------|
C|-2--2-2-2-2-2-2-2-2-2-2-2-2-2--5--5-5-5-5-5-5-5-5-5-5-5-5-5-|
G|-2--2-2-2-2-2-2-2-2-2-2-2-2-2--5--5-5-5-5-5-5-5-5-5-5-5-5-5-|
C|-2--2-2-2-2-2-2-2-2-2-2-2-2-2--5--5-5-5-5-5-5-5-5-5-5-5-5-5-|
      . . . . . . . . . . . . .     . . . . . . . . . . . . .
 
D|---------------------------------------------------------------|
A|---------------------------------------------------------------|
F|---------------------------------------------------------------|
C|-9--9-9-9-9-9-9--7--7-7-7-7-7-7--5--5-5-5-5-5-5-5-5-5-5-5--5-5-|
G|-9--9-9-9-9-9-9--7--7-7-7-7-7-7--5--5-5-5-5-5-5-5-5-5-5-5--5-5-|
C|-9--9-9-9-9-9-9--7--7-7-7-7-7-7--5--5-5-5-5-5-5-5-5-5-5-5--5-5-|
      . . . . . .     . . . . . .     . . . . . . . . . . .

This time round there are extra strums.
Ive tabbed it to what I think sounds right!
Its easier to understand if you listen to the song.


(2:19)
D|--------------------------------------------------------|
A|--------------------------------------------------------|
F|--------------------------------------------------------|
C|-2--2-2-2-2-2-2--2--2--2--2--2--2-2-2-2-2-2--2--2--2--2-|
G|-2--2-2-2-2-2-2--2--2--2--2--2--2-2-2-2-2-2--2--2--2--2-|
C|-2--2-2-2-2-2-2--2--2--2--2--2--2-2-2-2-2-2--2--2--2--2-|
      . . . . . .  .  .  .  .  .  . . . . . .  .  .  .  .

D|--------------------------------------------------------|
A|--------------------------------------------------------|
F|--------------------------------------------------------|
C|-5--5-5-5-5-5-5--5--5--5--5--5--5-5-5-5-5-5--5--5--5--5-|
G|-5--5-5-5-5-5-5--5--5--5--5--5--5-5-5-5-5-5--5--5--5--5-|
C|-5--5-5-5-5-5-5--5--5--5--5--5--5-5-5-5-5-5--5--5--5--5-|
      . . . . . .  .  .  .  .  .  . . . . . .  .  .  .  .

D|-------------------------------------------------------------|
A|-------------------------------------------------------------|
F|-------------------------------------------------------------|
C|-9--9-9-9-9-9-9--7--7-7-7-7-7-7--5--5-5-5-5-5-5-5-5-5-5-5-5~-|
G|-9--9-9-9-9-9-9--7--7-7-7-7-7-7--5--5-5-5-5-5-5-5-5-5-5-5-5~-|
C|-9--9-9-9-9-9-9--7--7-7-7-7-7-7--5--5-5-5-5-5-5-5-5-5-5-5-5~-|
      . . . . . .     . . . . . .     . . . . . . . . . . .

[Lead] (2:05)

D|-----------------------------------|
A|-----------------------------------|
F|-7-7-7-6-6-6-6-7-7-7-7-14-14-14-14-| 
C|-x-x-x-x-x-x-x-x-x-x-x-x--x--x--x--|
G|-5-5-5-4-4-4-4-5-5-5-5-12-12-12-12-|
C|-----------------------------------|(x2)

D|--------------------------------|
A|--------------------------------|
F|-11-11-11-11-11/12-9-9-9-9-9/11-|
C|-x-x-x-x-x-x-x--x--x-x-x-x-x-x--| 
G|-9-9-9-9-9-9-9/-14-7-7-7-7-7/9--|
C|--------------------------------|(2:12)

D|-----------------------------|
A|-----------------------------|
F|-----------------------------|
C|-7-7-7-7-7-7-7-7-7-7-7-7-7-7-|
G|-x-x-x-x-x-x-x-x-x-x-x-x-x-x-|
C|-5-5-5-5-5-5-5-5-5-5-5-5-5-5-|

(This is the life...)

D|-------------------------------|
A|-------------------------------|
F|-------------------------------|
C|-7-7-7-7-7-7-7-7-6-6-6-6-7-7-7-| 
G|-x-x-x-x-x-x-x-x-x-x-x-x-x-x-x-|
C|-5-5-5-5-5-5-5-5-4-4-4-4-5-5-5-|(2:19)

D|------------------------------------|
A|------------------------------------|
F|-9-9-9-9-9-9-9-9-9/7-7-7-7-12-12-12-|
C|-x-x-x-x-x-x-x-x-x-x-x-x-x-x--x--x--| 
G|-7-7-7-7-7-7-7-7-7/5-5-5-5-10-10-10-|
C|------------------------------------|

D|----------------------------------------------------|
A|----------------------------------------------------|
F|-12-12-12-12-12-12-12-12/11-11-11-11-11-11-11-11----|
C|-x--x--x--x--x--x--x--x--x--x--x--x--x--x--x--x--5~-| 
G|-10-10-10-10-10-10-10-10/9--9--9--9--9--9--9--9--5~-|
C|-------------------------------------------------5~-|(2:25)


[Breakdown] 

(2:31)
D|-------------------------------------|
A|-------------------------------------|
F|-------------------------------------|
C|-------------------------------------| 
G|-------------------------------------|
C|-0--0-0--0-0---0--0-0--0-0-0-0-0-0-0-|(x4)
   .  . .  . .   .  . .  . . . . . . . 


[Chorus 3]

(2:45)
D|---------------------------------------|
A|---------------------------------------| (x1) For Rhythem Guitar
F|-6-6-6/7-7-7-7/14-14-14-14/11-11-11-11-|
C|-x-x-x-x-x-x-x-x--x--x--x--x--x--x--x--|
G|-4-4-4/5-5-5-5/12-12-12-12/9--9--9--9--| (x5) For Lead Guitar
C|---------------------------------------|

D|------------------------------------------------------------|
A|------------------------------------------------------------|
F|------------------------------------------------------------|
C|-9-9-9-9-9-9-9--5-5-5-5-5-5-5--0-0-0-0-0-0-0--7-7-7-7-7-7-7-| (x4)
G|-9-9-9-9-9-9-9--5-5-5-5-5-5-5--0-0-0-0-0-0-0--7-7-7-7-7-7-7-|
C|-9-9-9-9-9-9-9--5-5-5-5-5-5-5--0-0-0-0-0-0-0--7-7-7-7-7-7-7-|


[Lead] 

(3:01)
D|----------------------|
A|-15-14----12----------|
F|-------14----14-12-11-| (x8)
C|----------------------|
G|----------------------|
C|----------------------|


[One Final Chorus] 

(3:14)


[Rhythm]

D|---------------------------------------------------------------|
A|---------------------------------------------------------------|
F|---------------------------------------------------------------|
C|-9-9-9-9-9-9-9--5-5-5-5-5-5-5--0-0-0-0-0-0-0--7-7-7-7-7-7---0~-|
G|-9-9-9-9-9-9-9--5-5-5-5-5-5-5--0-0-0-0-0-0-0--7-7-7-7-7-7---0~-|
C|-9-9-9-9-9-9-9--5-5-5-5-5-5-5--0-0-0-0-0-0-0--7-7-7-7-7-7---0~-|


[Lead]

D|----------------------|
A|-15-14----12----------|
F|-------14----14-12-11-| (x4) (On the last time dont play the last note)
C|----------------------|
G|----------------------|
C|----------------------|


Song order:

[Intro]
[Verse 1]
[Pre-Chorus 1]
[Chorus 1]
[Verse 2]
[Pre-Chorus 2]
[Chorus 2]
[Bridge]
[Breakdown]
[Chorus 3]
[One Final Chorus]


************************************

| X  Mutes.
| .  Palm Mutes.
| ~  Hold Note.
| /  Slide up to. Don’t count the ones under the string
     Letters.

************************************
Suggest correction
comments
print report bad tab
29 comments total. Showing first comments.
+1 reply
someguy9d 10 Mar 16, 2009 10:47 AM

sounds perfect to me =D.

-1 reply
shibby013 62 Jun 29, 2009 06:00 AM

the intro is wrong on the lead its played on the 'B' string and also the high 'E' open if you were in standard

E----0----0----0-----0-----0
B----5----7----5-----12----9

E

-2 reply
Sam Rulez D00d 928 Jul 21, 2009 05:14 PM

its not in standard, shibby. haha but if u were in standard it would be:


E|-0000-0000-7777-4444-|
B|-4444-5555-5555-5555-|

guest
You may want to rate the tab now too:
select rating
Wanna post a correction for this tab? Suggest correction