Oops, an error
Loading. Please wait.

Over My Head Cable Car Tab

version 1
version 1

Whole song

Interactive

66,118 views 3 this week
4 commentsread comments
1 2 3 4 5
worth learning
x 15
add to favorites
launch autoscroll
font size
0
reset
how to read this tab
guitar tuner
Tab Pro tools
  • play this tab
  • loop segment
  • change instrument
  • show fretboard
  • metronome
×
Best way to learn
"Over My Head Cable Car"
Autoscroll
slow
fast
+/-
esc
set tempo
stop
Contributor
-------------------------------------------------------------------------------
                            Over My Head (Cable Car) [Cover] - A Day to Remember
-------------------------------------------------------------------------------
Tabbed by: Paul Garrido
Email: Paulgarrido@roadrunner.com


Any questions, comments, concerns? Email me
Listen to the song to if you get confused.




Tuning: CGCFAD

 "I never knew...,"     "When all I needed...,"
                 x3         Intro
|----|-------------|---------------------------------------------|
|--3-|o--3--3--3--o|--3-3-3-3-3-3-3-3-3-3-3-3-3-3-3-3------------|
|--2-|---0--2--2---|--0-0-0-0-2-2-2-2-2-2-2-2-2-2-2-2------------|
|--0-|---2--2--0---|--2-2-2-2-2-2-2-2-0-0-0-0-0-0-0-0------------|
|--0-|o--2--0--0--o|--2-2-2-2-0-0-0-0-0-0-0-0-0-0-0-0------------|
|----|-------------|---------------------------------------------|


                    Verse one  x2
|-----------------------------------|
|o---------------------------------o|
|-----------------------------------|
|------5-5-5-5-5-5-5/-7-7-7------7--|
|o-12\-5-5-5-5-5-5-5/-7-7-7--555-5-o|
|--12\-5-5-5-5-5-5-5/-7-7-7---------|
       * *   * *   *  * *    *** 

                        Pre-chorus
|---------------------------------------------------------|
|---------------------------------------------------------|
|---------------------------------------------------------|
|---5-5-5-5-5-5-5/-7-7-7--9-9-9-9-7-7-7-7-5-5-5-5-5-5-5-5-|
|---5-5-5-5-5-5-5/-7-7-7--7-7-7-7-5-5-5-5-5-5-5-5-5-5-5-5-|
|---5-5-5-5-5-5-5/-7-7-7------------------5-5-5-5-5-5-5-5-|            
    * *   * *   *  * * 

    Guitar riff at pre-chorus
|------5======-------------------------------------==------|
|-------------7=======-----------7-------------------------|
|---------------------7/9\7-----------7======--------------|
|----------------------------------------------------------|
|------------------------------------------------=====-----|
|----------------------------------------------------------|


     Chorus            x4
|------------------------------------|
|o----------------------------------o|
|------------------------------------|
|--5-5-5-5-0-0-0-0-9-9-9-9-7-7-7-7---|
|o-5-5-5-5-0-0-0-0-9-9-9-9-7-7-7-7--o|
|--5-5-5-5-0-0-0-0-9-9-9-9-7-7-7-7---|


      Chorus  lead riff  x4
|-----5-----5------------------------|
|-5h7---5h7---5h7-----7---7h8p7------|
|-----------------7s9---9-------7----|
|------------------------------------|
|------------------------------------|
|------------------------------------|


           Verse two                  x2
|----------------------------------------|
|o--------------------------------------o|
|----------------------------------------|
|--5-5-5-5-5-5-5-5-------9-----------7---|
|o-5-5-5-5-5-5-5-5-------9---55-5555-5--o|
|--5-5-5-5-5-5-5-5--9999-9---------------|
   * *   * * *   *  ****     ** ****  


|----------------------------------------------------------------------|
|----------------------------------------------------------------------|
|----------------------------------------------------------------------|
|--5-5-5-5-5-5-5-5-------9-----------7-9-9-9-9-7-7-7-7-7-7-7-7-7-7-7-7-|
|--5-5-5-5-5-5-5-5-------9---55-5555-5-7-7-7-7-5-5-5-5-7-7-7-7-7-7-7-7-|
|--5-5-5-5-5-5-5-5--9999-9-----------------------------7-7-7-7-7-7-7-7-|
   * *   * * *   *  ****     ** ****

     Verse Two Breakdown      x3
|---------------------------------|----------------------------|
|--------------------------------o|----------------------------|
|---------------------------------|----------------------------|
|---------------------------------|-9------5---5-5-5-5-5-5-5-5-|
|--5555-5-55-5--5--999--55555555-o|-7---55-5---5-5-5-5-5-5-5-5-|
|--5555-5-55-5--5--999------------|--------5---5-5-5-5-5-5-5-5-|
   **** * ** *  *  ***  ********           *


     [Chorus x 8]  

          
           Bridge Breakdown
|-----------------------------------------------------------------|
|--------------------------------------3==-------------8----------|
|--------------------------------------2==-----------b^10---------|
|-0-0-0--------0-0-0------------0-0-0--0==---0-0-0----------------|
|-0-0-0-----00-0-0-0------------0-0-0--0==00-0-0-0----------------|
|-0-0-0-----00-0-0-0---00000000-0-0-0--0==00-0-0-0----------------|
  * * *     ** * * *   ******** * * *     ** * * *

              Bridge Continued x2
|----------------------------------|
|o--------------------------------o|
|----------------------------------|
|---5-5-5-5-5-5-5/-7-7-7----7---7--|
|o--5-5-5-5-5-5-5/-7-7-7--5-5-5-5-o|
|---5-5-5-5-5-5-5/-7-7-7-----------|
    * *   * * *    * *    *   * 

                        End of Bridge
|---------------------------------------------------------|
|---------------------------------------------------------|
|---------------------------------------------------------|
|---5-5-5-5-5-5-5/-7-7-7--9-9-9-9-7-7-7-7-5-5-5-5-5-5-5-5-|
|---5-5-5-5-5-5-5/-7-7-7--7-7-7-7-5-5-5-5-5-5-5-5-5-5-5-5-|
|---5-5-5-5-5-5-5/-7-7-7------------------5-5-5-5-5-5-5-5-|            
    * *   * *   *  * * 


         Acoustic Chorus Slowdown Chords in order:

|-----------------|
|--3---3---3---3--|
|--0---2---4---2--|
|--0---0---4---2--|
|--x---0---2---0--|
|--5--------------|

        Outro and Final Choruses (Play as much as needed):

     Chorus            
|------------------------------------|
|o----------------------------------o|
|------------------------------------|
|--5-5-5-5-0-0-0-0-9-9-9-9-7-7-7-7---|
|o-5-5-5-5-0-0-0-0-9-9-9-9-7-7-7-7--o|
|--5-5-5-5-0-0-0-0-9-9-9-9-7-7-7-7---|


      Chorus  lead riff  x4
|-----5-----5------------------------|
|-5h7---5h7---5h7-----7---7h8p7------|
|-----------------7s9---9-------7----|
|------------------------------------|
|------------------------------------|
|------------------------------------|








| b^ bend up
| =  sustain note
| *  palm mute
| /  slide up
| \  slide down
| h  hammer-on
| p  pull-off
| ~  vibrato
| +  harmonic
| x  Mute note
===============================================================================
comments
print report bad tab
4 comments total. Showing first comments.
0 reply
Portugeezer31 wrote on April 23 2009, 07:54 am

good stuff, that palm muting can be a bitch, im currently in the phase wher im tryna hold the pick with 1 finger and thumb instead of 2 fingers and thumb.

-1 reply
eldoplaysguitar wrote on April 26 2009, 12:19 am

this tab is all wrong

-1 reply
Caleb B wrote on April 29 2009, 10:33 pm

Yea, it is all wrong. Go to my tab of it, it's all right,

I want to post or [tab]
guest
You may want to rate the tab now too:
select rating
Please do not post tabs as comments. Select "correction" instead!