Oops, an error
Loading. Please wait.

Paranoia tab

version 4
version 4

Whole song

Interactive

Video

2,095 views 18 this week
2 commentsread comments
1 2 3 4 5
x 7
add to favorites
×
Save as Personal and add changes to this tab that will be seen only by you. Learn more ›
×
You can save this tab as Personal to edit and correct it or add notes. All changes will be seen only by you. Learn more »
launch autoscroll
font size
0
reset
how to read this tab
guitar tuner
edit
Autoscroll
slow
fast
+/-
esc
set tempo
stop
[INTRO/VERSE:]

d#:-0-00-00-0-00-00-0-00-00-0-00-00---------------------------------|
A#:-5-55-56-5-55-56-5-55-56-5-55-56---------------------------------|
F#:-----------------------------------------------------------------|
C#:---------------------------------2-22-23-2-22-23-2-22-23-2-22-23-|
G#:---------------------------------2-22-23-2-22-23-2-22-23-2-22-23-|
C#:---------------------------------2-22-23-2-22-23-2-22-23-2-22-23-|


[PRE CHORUS:]

Guitar 1:
d#:-------------------------------------------------------------------------------------------|
A#:-------------------------------------------------------------------------------------------|
F#:-5-5-5-5-5-5-5---------------------------------------------------5-5-5-5-5-5-5-5-----------|
C#:-5-5-5-5-5-5-5-0-0-0-0-0-0-0-0--2-22-23-2-22-23-2-22-23-2-22-23--5-5-5-5-5-5-5-5-0-0-0-0-0-|
G#:-3-3-3-3-3-3-3-0-0-0-0-0-0-0-0--2-22-23-2-22-23-2-22-23-2-22-23--3-3-3-3-3-3-3-3-0-0-0-0-0-|
C#:---------------0-0-0-0-0-0-0-0--2-22-23-2-22-23-2-22-23-2-22-23------------------0-0-0-0-0-|
---
Guitar 2:
d#:--------------------------------------------------------------------------------------|
A#:--------------------------------------------------------------------------------------|
F#:-12-12-12-12-12-12-12-12-11-11-11-11-11-11-11-11-9-99-910-9-99--910-9-99-910-9-99-910-|
C#:-x--x--x--x--x--x--x--x--x--x--x--x--x--x--x--x--x-xx-xx--x-xx--xx--x-xx-xx--x-xx-xx--|
G#:-10-10-10-10-10-10-10-10-9--9--9--9--9--9--9--9--7-77-78--7-77--78--7-77-78--7-77-78--|
C#:--------------------------------------------------------------------------------------|

d#:----------------------------------------|
A#:----------------------------------------|
F#:-12-12-12-12-12-12-12-12-11-11-11-11-11-|
C#:-x--x--x--x--x--x--x--x--x--x--x--x--x--|
G#:-10-10-10-10-10-10-10-10-9--9--9--9--9--|
C#:----------------------------------------|


[CHORUS 1:]

Guitar 1:
d#:-------------------------------------------------------------------|
A#:-------------------------------------------------------------------|
F#:------------------5-5-5-5-5-5-5-5------------------------------2-2-|
C#:-2-2-2-2-2-2-2-2--5-5-5-5-5-5-5-5--0-0-0-0-0-0-0-0-0-0-0-0-0-0-2-2-|
G#:-2-2-2-2-2-2-2-2--3-3-3-3-3-3-3-3--0-0-0-0-0-0-0-0-0-0-0-0-0-0-0-0-|
C#:-2-2-2-2-2-2-2-2-------------------0-0-0-0-0-0-0-0-0-0-0-0-0-0-----|

Guitar 2:
d#:-----------------------------------------------------------------------------------|
A#:-----------------------------------------------------------------------------------|
F#:----12-11-11-12-11-11-12-11-9-9-7-7-9-9--12-11-9--12-11-11-12-11-14-14-12-12-11-11-|
C#:----x--x--x--x--x--x--x--x--x-x-x-x-x-x--x-x-x-x--x--x--x--x--x--x--x--x--x--x--x--|
G#:----10-9--9--10-9--9--10-9--7-7-5-5-7-7--10-9--9--10-9--9--10-9--12-12-10-10-9--9--|
C#:-----------------------------------------------------------------------------------|

Guitar 1:
d#:--------------------------------------------------------------------|
A#:--------------------------------------------------------------------|
F#:------------------5-5-5-5-5-5-5-5-----------------------------------|
C#:-2-2-2-2-2-2-2-2--5-5-5-5-5-5-5-5--0-0-0-0-0-0-0-0-0-0-0-0-0-0--0-1-|
G#:-2-2-2-2-2-2-2-2--3-3-3-3-3-3-3-3--0-0-0-0-0-0-0-0-0-0-0-0-0-0--0-1-|
C#:-2-2-2-2-2-2-2-2-------------------0-0-0-0-0-0-0-0-0-0-0-0-0-0--0-1-|

Guitar 2:
d#:------------------------------------------------------------------------|
A#:------------------------------------------------------------------------|
F#:-12-11-11-12-11-11-12-11-9-9-7-7-9-9-7-7--7-7-7-7-7-12-11-11-11-11-7-8--|
C#:-x--x--x--x--x--x--x--x--x-x-x-x-x-x-x-x--x-x-x-x-x-x--x--x--x--x--x-x--|
G#:-10-9--9--10-9--9--10-9--7-7-5-5-7-7-5-5--5-5-5-5-5-10-9--9--9--9--5-6--|
C#:------------------------------------------------------------------------|


[POST CHORUS:]

d#:---------------------------------|
A#:---------------------------------|
F#:---------------------------------|
C#:-2-22-23-2-22-23-2-22-23-2-22-23-|
G#:-2-22-23-2-22-23-2-22-23-2-22-23-|
C#:-2-22-23-2-22-23-2-22-23-2-22-23-|


[CHORUS 2:]

Guitar 1:
d#:-------------------------------------------------------------------|
A#:-------------------------------------------------------------------|
F#:------------------5-5-5-5-5-5-5-5------------------------------2-2-|
C#:-2-2-2-2-2-2-2-2--5-5-5-5-5-5-5-5--0-0-0-0-0-0-0-0-0-0-0-0-0-0-2-2-|
G#:-2-2-2-2-2-2-2-2--3-3-3-3-3-3-3-3--0-0-0-0-0-0-0-0-0-0-0-0-0-0-0-0-|
C#:-2-2-2-2-2-2-2-2-------------------0-0-0-0-0-0-0-0-0-0-0-0-0-0-----|

Guitar 2:
d#:-----------------------------------------------------------------------------------|
A#:-----------------------------------------------------------------------------------|
F#:----12-11-11-12-11-11-12-11-9-9-7-7-9-9--12-11-9--12-11-11-12-11-14-14-12-12-11-11-|
C#:----x--x--x--x--x--x--x--x--x-x-x-x-x-x--x-x-x-x--x--x--x--x--x--x--x--x--x--x--x--|
G#:----10-9--9--10-9--9--10-9--7-7-5-5-7-7--10-9--9--10-9--9--10-9--12-12-10-10-9--9--|
C#:-----------------------------------------------------------------------------------|

Guitar 1:
d#:--------------------------------------------------------------------|
A#:--------------------------------------------------------------------|
F#:------------------5-5-5-5-5-5-5-5-----------------------------------|
C#:-2-2-2-2-2-2-2-2--5-5-5-5-5-5-5-5--0-0-0-0-0-0-0-0-0-0-0-0-0-0--0-1-|
G#:-2-2-2-2-2-2-2-2--3-3-3-3-3-3-3-3--0-0-0-0-0-0-0-0-0-0-0-0-0-0--0-1-|
C#:-2-2-2-2-2-2-2-2-------------------0-0-0-0-0-0-0-0-0-0-0-0-0-0--0-1-|

Guitar 2:
d#:-------------------------------------------------------------------------------|
A#:-------------------------------------------------------------------------------|
F#:-12-11-11-12-11-11-12-11-9-9-7-7-9-9-7-7--7-7-7-7-7-12-11-11-11-11-7--11-12-11-|
C#:-x--x--x--x--x--x--x--x--x-x-x-x-x-x-x-x--x-x-x-x-x-x--x--x--x--x--x--x--x--x--|
G#:-10-9--9--10-9--9--10-9--7-7-5-5-7-7-5-5--5-5-5-5-5-10-9--9--9--9--10-9--10-9--|
C#:-------------------------------------------------------------------------------|

Guitar 1:
d#:-------------------------------------------------------------------|
A#:-------------------------------------------------------------------|
F#:------------------5-5-5-5-5-5-5-5------------------------------2-2-|
C#:-2-2-2-2-2-2-2-2--5-5-5-5-5-5-5-5--0-0-0-0-0-0-0-0-0-0-0-0-0-0-2-2-|
G#:-2-2-2-2-2-2-2-2--3-3-3-3-3-3-3-3--0-0-0-0-0-0-0-0-0-0-0-0-0-0-0-0-|
C#:-2-2-2-2-2-2-2-2-------------------0-0-0-0-0-0-0-0-0-0-0-0-0-0-----|

Guitar 2:
d#:-----------------------------------------------------------------------------------|
A#:-----------------------------------------------------------------------------------|
F#:----12-11-11-12-11-11-12-11-9-9-7-7-9-9--12-11-9--12-11-11-12-11-14-14-12-12-11-11-|
C#:----x--x--x--x--x--x--x--x--x-x-x-x-x-x--x-x-x-x--x--x--x--x--x--x--x--x--x--x--x--|
G#:----10-9--9--10-9--9--10-9--7-7-5-5-7-7--10-9--9--10-9--9--10-9--12-12-10-10-9--9--|
C#:-----------------------------------------------------------------------------------|

Guitar 1:
d#:--------------------------------------------------------------------|
A#:--------------------------------------------------------------------|
F#:------------------5-5-5-5-5-5-5-5-----------------------------------|
C#:-2-2-2-2-2-2-2-2--5-5-5-5-5-5-5-5--0-0-0-0-0-0-0-0-0-0-0-0-0-0--0-1-|
G#:-2-2-2-2-2-2-2-2--3-3-3-3-3-3-3-3--0-0-0-0-0-0-0-0-0-0-0-0-0-0--0-1-|
C#:-2-2-2-2-2-2-2-2-------------------0-0-0-0-0-0-0-0-0-0-0-0-0-0--0-1-|

Guitar 2:
d#:------------------------------------------------------------------------|
A#:------------------------------------------------------------------------|
F#:-12-11-11-12-11-11-12-11-9-9-7-7-9-9-7-7--7-7-7-7-7-12-11-11-11-11-7-8--|
C#:-x--x--x--x--x--x--x--x--x-x-x-x-x-x-x-x--x-x-x-x-x-x--x--x--x--x--x-x--|
G#:-10-9--9--10-9--9--10-9--7-7-5-5-7-7-5-5--5-5-5-5-5-10-9--9--9--9--5-6--|
C#:------------------------------------------------------------------------|


[BREAKDOWN:]

Guitar 1:
d#:-----------------------------------------------------------------------|
A#:-----------------------------------------------------------------------|
F#:-----------------------------------------------------------------------|
C#:-----------------------------------------------------------------------|
G#:-----------------------------------------------------------------------|
C#:-2-xx2-xx3-2-xx2-xx2-xx0--x0-0-3-2-xx2-xx3-2-xx2-xx3-xx0-xx0-0-3-2-----|

Guitar 2:
d#:--------------------------------------------------------------------|
A#:--------------------------------------------------------------------|
F#:--------------------------------------------------------------------|
C#:----------------------------0-0-3-2------------------------0-0-3-2~-|
G#:----------------------------0-0-3-2------------------------0-0-3-2~-|
C#:----------------------------0-0-3-2------------------------0-0-3-2~-|

Guitar 1:
d#:----------------------------------------------------------------------|
A#:----------------------------------------------------------------------|
F#:----------------------------------------------------------------------|
C#:----------------------------------2-2-3-2-2---------------------------|
G#:----------------------------------2-2-3-2-2---------------------------|
C#:---xx2-xx3-2-xx2-xx2-xx0--x0--0-3-2-2-3-2-2--------------------------|

Guitar 2:
d#:-------------------------------------------------------------------|
A#:-------------------------------------------------------------------|
F#:-------------------------------------------------------------------|
C#:-(2)~-----------------------------2-2-3-2-2------------------------|
G#:-(2)~-----------------------------2-2-3-2-2------------------------|
C#:-(2)~-----------------------------2-2-3-2-2------------------------|


Both Guitars:
d#:-----------------------------------------------------------------------|
A#:-----------------------------------------------------------------------|
F#:-----------------------------------------------------------------------|
C#:-2---2---3-2---2---2---0---0-0-3-2---2---3-2---2---3---0---0-0-3-------|
G#:-2-xx2-xx3-2-xx2-xx2-xx0-xx0-0-3-2-xx2-xx3-2-xx2-xx3-xx0-xx0-0-3-------|
C#:-2-xx2-xx3-2-xx2-xx2-xx0-xx0-0-3-2-xx2-xx3-2-xx2-xx3-xx0-xx0-0-3-------|

d#:-----------------------------------------------------------------------|
A#:-----------------------------------------------------------------------|
F#:-----------------------------------------------------------------------|
C#:-2---2---3-2---2---2---0---0-0-3-2---2---3-2---2-------0---------------|
G#:-2-xx2-xx3-2-xx2-xx2-xx0-xx0-0-3-2-xx2-xx3-2--x2-0-0-0-0---------------|
C#:-2-xx2-xx3-2-xx2-xx2-xx0-xx0-0-3-2-xx2-xx3-2--x2-0-0-0-0---------------|
pm                                                  . . .

Both Guitars:
d#:-------------------------------------------------|
A#:-------------------------------------------------|
F#:-------------------------------------------------|
C#:--2--2--3-2--2-2-0--0-0-3-2--2--3-2--2-3-0-0-0-3-|
G#:--2--2--3-2--2-2-0--0-0-3-2--2--3-2--2-3-0-0-0-3-|
C#:--2--2--3-2--2-2-0--0-0-3-2--2--3-2--2-3-0-0-0-3-|

d#:-----------------------------------------------------------------------|
A#:-----------------------------------------------------------------------|
F#:-----------------------------------------------------------------------|
C#:-2---2---3-2---2---2---0---0-0-3-2---2---3-2---2---3---0---0-0-3-------|
G#:-2-xx2-xx3-2-xx2-xx2-xx0-xx0-0-3-2-xx2-xx3-2-xx2-xx3-xx0-xx0-0-3-------|
C#:-2-xx2-xx3-2-xx2-xx2-xx0-xx0-0-3-2-xx2-xx3-2-xx2-xx3-xx0-xx0-0-3-------|

********************************

x  dead note

********************************
Suggest correction
Creating personal tab
Creating personal tab
You can edit any tab online and save it as your Personal.

You can edit, replace or remove any tab part or add personal notes – all changes will be seen only by you.

Personal tabs can be accessed anytime from any device, even offline.
Learn more »
comments
print report bad tab
2 comments total.
+3 reply
evkubick 235 Jun 12, 2016 09:46 AM

I was looking through all the versions of "Paranoia" and yours is the only one that gets even the tuning correct! Beyond that, your tab is overall accurate! It's amazing that Versions 1-3 of this tab even got accepted...those were painful to look at. Props to you!

0 reply
cameronjlapp 181 Jun 18, 2016 04:02 PM

thanks, I appreciate that!

guest
You may want to rate the tab now too:
select rating
Wanna post a correction for this tab? Suggest correction