Oops, an error
Loading. Please wait.

Plot To Bomb The Panhandle Bass Tab

version 1
version 1

Whole song

14,340 views 6 this week
no commentswrite comment
1 2 3 4 5
1 last vote to show rating
add to favorites
launch autoscroll
font size
0
reset
guitar tuner
Autoscroll
slow
fast
+/-
esc
set tempo
stop
Help us to improve Ultimate-Guitar.com Take our survey!
×
Author
Tabbed by Quinny90210
Email - Quinnysamole@hotmail.com


Intro:  
                                                  
Nothing is played until 4 bars in.

"....Go!"

F|----------------|----------------------|----------------|-------------------|
C|----------------|----------------------|----------------|-------------------|
G|----------------|----------------------|----------------|-------------------|
C|7777------------|7777-------------73---|7777------------|7777-------------73| x2

Pre-Verse:

F|--------------------|
C|--------------------|
G|0--0023-------03----|
C|--------2--22----3--|

Verse:

F|----------------------------------|-----------------------------|
C|----------------------------------|-----------------------------|
G|----------------------------------|---------3-33-333------------|
C|7-77-777-2-22-222-3-33-3333-33-333|7-77-777----------3--XX-XX-XX|


F|----------------------------------|-------------------------|
C|----------------------------------|-------------------------|
G|----------------------------------|---------3-33-333--------|
C|7-77-777-2-22-222-3-33-3333-33-333|7-77-777----------3~~~~--|

Pre-Chorus:

F|--------------------------------|--------------------------------|
C|--------------------------------|--------------------------------|
G|--------------------------------|----------------------33-33-3333|
C|33-33-33-33-333377-77-77-77-7777|33-33-33-33-333377-77-----------|
  PM...............................................................

F|--------------------------------|-----------------------------------------|
C|--------------------------------|-----------------------------------------|
G|--------------------------------|-----------------------------------------|
C|33-33-33-33-333377-77-77-77-7777|33-33-33-33-333355-55-22-22-2222-3---3---|
  PM...............................................................

Chorus:                                                                  

F|--------------------------------|---------------------------------|
C|--------------------------------|---------------------------------|
G|--------------------------------|3-33-333-333-333-----------------|    
C|7-77-777-777-7773-33-333-333-333|----------------5-55-555-6-66-666|    

"I'll rip that scandalous bitch in two"

F|-----------------|
C|-----------------|
G|-----------------|
C|3-3----------7-5-|

Intro. 2 

F|----------------|----------------------|----------------|-------------------|
C|----------------|----------------------|----------------|-------------------|
G|----------------|----------------------|----------------|-------------------|
C|7777------------|7777-------------73---|7777------------|7777-------------73|

F|----------------|----------------------|----------------|----------------------|
C|----------------|----------------------|----------------|----------------------|
G|----------------|----------------------|----------------|----------------------|
C|7777------------|7777-------------73---|7777------------|7777-------------73---|


Pre-Verse

F|--------------------|
C|--------------------|
G|0--0023-------03-3--|
C|--------2--22----3--|

Verse
Pre-Chorus
Chorus x2

Interlude:

F|--------|--------------------|--------------------------------|----------------------------------|
C|--------|--------------------|--------------------------------|----------------------------------|
G|--------|--------------------|--------------------------------|----------------------------------|
C|3-------|3----7----3----7----|333-333-333-333-777-777-555-555-|333-333-333-333-777-777-----------|
                                ..  ..  ..  ..  ..  ..  ..  ..   ..  ..  ..        
F|--------|---------------|--------|-----|-----------|-------------|------------|-------------|
C|--------|---------------|--------|-----|-----------|-------------|------------|-------------|
G|7-2-3---|7-2-3--33333333|--------|-----|-----------|-------------|------------|-------------|
C|7-2-3---|7-2-3----------|7-2-3---|7-2-3|7-2-3--3-33|7-2-3--3-3/5-|7-2-3--3-33|7-2-3--3-355--|

Outro.

F|----------------|----------------------|----------------|----------------------|
C|----------------|----------------------|----------------|----------------------|
G|----------------|----------------------|----------------|----------------------|
C|7777------------|7777-------------73---|7777------------|7777-------------73-7\|
Suggest correction
Give kudos to tab author, rate the tab!
1 2 3 4 5
comments
print report bad tab
guest
You may want to rate the tab now too:
select rating
Wanna post a correction for this tab? Suggest correction