Oops, an error
Loading. Please wait.

Plot To Bomb The Panhandle Tab

version 3
version 3
8,368 views 1 this week
no commentswrite comment
1 2 3 4 5
worth learning
x 6
add to favorites
launch autoscroll
font size
0
reset
how to read this tab
guitar tuner
Tab Pro tools
  • play this tab
  • loop segment
  • change instrument
  • show fretboard
  • metronome
Autoscroll
slow
fast
+/-
esc
set tempo
stop
Contributor
Difficulty
Tuning
novice
D A D G B E
Okay so this song is suposedly in drop C. but i found it soudns nicer and just as easy 
play in D.


(intro)
---------------------------------------------------|
---------------------------------------------------|
---------------------------------------------------|  X2
-5-5-8-(Tremelo)-------5-5-8(tremelo)--5/1---------|
-5-5-------------------5-5-------------5/1---------|
-5-5-------------------5-5-------------5/1---------|

I've learned to let go___________________

---------------------------------------------------|
---------------------------------------------------|
---------------------------------------------------|  X4
-5-5-8-(Tremelo)-------5-5-8(tremelo)--5/1---------|
-5-5-------------------5-5-------------5/1---------|
-5-5-------------------5-5-------------5/1---------|

Come on___________

(pre verse)
---------------------------|
---------------------------|
---------------------------|
-5---------0---------1-----|
-5--0h1p0--0--0h1p0--1-----|
-5---------0---------1-----|

(verse)
-------------------------------------------------- ]
------------------------------------------|     -- ]
------------------------------------------|     -- ]
-5-5-5-5-5-5--0-0-0-0-0-0--1-1-1-1-1-1----|     -- ]
-5-5-5-5-5-5--0-0-0-0-0-0--1-1-1-1-1-1----|     -- ]
-5-5-5-5-5-5--0-0-0-0-0-0--1-1-1-1-1-1------------ ]
                                                      X2
----------------------------------------------|  ]
----------------------------------------------|  ]
----------------------------------------------|  ]
-5-5-5-5-5-5--3-3-3-3-3-3-1-1-1--xx-xx-xx-xx--|  ]
-5-5-5-5-5-5--1-1-1-1-1-1-1-1-1--xx-xx-xx-xx--|  ]
-5-5-5-5-5-5--------------1-1-1--xx-xx-xx-xx--|  ]

----------------------------------------------|
----------------------------------------------|
----------------------------------------------|
-5-5-5-5-5-5--3-3-3-3-3-3-1~~-----------------|
-5-5-5-5-5-5--1-1-1-1-1-1-1~~-----------------|
-5-5-5-5-5-5--------------1~~-----------------|

(on second time round verse play above)


(pre chorus) (palm mute)


---------------------------------------------------------------------|
---------------------------------------------------------------------|
------------------------------------------------------------7h8p7p5--|
------1-1---1-1---1-1---1-1---1-1-1-1---5-5--5-5--5-5--5-5-----------|
------1-1---1-1---1-1---1-1---1-1-1-1---5-5--5-5--5-5--5-5-----------|
------1-1---1-1---1-1---1-1---1-1-1-1---5-5--5-5--5-5--5-5-----------|
P.M.  * *   * *   * *   * *   * * * *   * *  * *  * *  * *
----------------------------------------------------------------|
----------------------------------------------------------------|
----------------------------------------------------------------|
-1-1---1-1---1-1---1-1---1-1-1-1---5-5--5-5--5-8--8-8--8-8-8-8--|
-1-1---1-1---1-1---1-1---1-1-1-1---5-5--5-5--5-8--8-8--8-8-8-8--|
-1-1---1-1---1-1---1-1---1-1-1-1---5-5--5-5--5-8--8-8--8-8-8-8--|
 * *   * *   * *   * *   * * * *   * *  * *  * *  * *  * * * *

---------------------------------------------------------------------|
---------------------------------------------------------------------|
------------------------------------------------------------7h8p7p5--|
------1-1---1-1---1-1---1-1---1-1-1-1---5-5--5-5--5-5--5-5-----------|
------1-1---1-1---1-1---1-1---1-1-1-1---5-5--5-5--5-5--5-5-----------|
------1-1---1-1---1-1---1-1---1-1-1-1---5-5--5-5--5-5--5-5-----------|
P.M.  * *   * *   * *   * *   * * * *   * *  * *  * *  * *

--------------------------------------------------------------------|
--------------------------------------------------------------------|
--------------------------------------------------------------------|
-1-1---1-1---1-1---1-1---1-1-1-1---3-3--3-3--3-0--0-0--0-0-0-0--1~--|
-1-1---1-1---1-1---1-1---1-1-1-1---3-3--3-3--3-0--0-0--0-0-0-0--1~--|
-1-1---1-1---1-1---1-1---1-1-1-1---3-3--3-3--3-0--0-0--0-0-0-0--1~--|
 * *   * *   * *   * *   * * * *   * *  * *  * *  * *  * * * *


(chorus)


------------------------------------------------------------------------|
------------------------------------------------------------------------|
------------------------------------------------------------------------|
-5-5-5-5-5-5-5-5---1-1-1-1-1-1-1-1---3-3-3-3-3-3-3-3---3-3-3-3--4-4-4-4-|
-5-5-5-5-5-5-5-5---1-1-1-1-1-1-1-1---1-1-1-1-1-1-1-1---3-3-3-3--4-4-4-4-|
-5-5-5-5-5-5-5-5---1-1-1-1-1-1-1-1---------------------3-3-3-3--4-4-4-4-|

------------------------------------------------------------------------|
------------------------------------------------------------------------|
------------------------------------------------------------------------|
-5-5-5-5-5-5-5-5---1-1-1-1-1-1-1-1---3-3-3-3-3-3-3-3---3-3-3-3--4-4-4-4-|
-5-5-5-5-5-5-5-5---1-1-1-1-1-1-1-1---1-1-1-1-1-1-1-1---3-3-3-3--4-4-4-4-|
-5-5-5-5-5-5-5-5---1-1-1-1-1-1-1-1---------------------3-3-3-3--4-4-4-4-|


(intro)

(verse)

(pre - chorus)

(chorus)

Bridge

-----------------------------------------------------------|
-----------------------------------------------------------|
-----------------------------------------------------------|
-1-------1---------5---------1----------5------------------|
-1-------1---------5---------1----------5------------------|
-1-------1---------5---------1----------5------------------|


------------------------------------------------------------------|
------------------------------------------------------------------|
------------------------------------------------------------------|
---1-1-1---1-1-1---1-1-1---1-1-1---5-5-5---5-5-5---3-3-3--3-3-3---| X2
---1-1-1---1-1-1---1-1-1---1-1-1---5-5-5---5-5-5---3-3-3--3-3-3---|
---1-1-1---1-1-1---1-1-1---1-1-1---5-5-5---5-5-5---3-3-3--3-3-3---|
PM * *     * *     * *     * *     * *     * *     * *    * *

-----------------------------------------------------------|
-----------------------------------------------------------|
-------------------3-3-3-3-3-3-----------------------------|
-5p0--1~----5p0--1----------------5p0--1~-----5p0--1-------|
-5p0--1~----5p0--1----------------5p0--1~-----5p0--1-------|
-5p0--1~----5p0--1----------------5p0--1~-----5p0--1-------|
                                                   *
Make the very last 1 (*) stop quickly, it's obvious when you listen to the song.

-------------------------------------------|
-------------------------------------------|
-------------------------------------------|
-5p0--1--1-1-1----5p0-1~-1/3-3-3-3---------| X2
-5p0--1--1-1-1----5p0-1~-1/3-3-3-3---------|
-5p0--1--1-1-1----5p0-1~-1/3-3-3-3---------|
 P.M     * * *


Intro works as an outro here

I'VE LEARNED TO LET GO!
COME ON!

Here's a middle finger comin' straight from oca-la
I appreciate your judgment it's proved that I can't trust a word you say
Those must be some pair of binoculars that you see every move I make, so I'll never be a
but you'll always be two-faced

You'll get what's comin' to you
You're blinded by your instincts
I'm not your fucking game
I'm not so easily beat

I'm looking down at this mess that you've made, and I can't believe that I stayed so 
for so long
Where did I go wrong?
I've got to get out of this, my hand is on the handle, and we're leaving everything behind
Goodbye for a lifetime

I'LL RIP THAT SCANDALOUS BITCH IN TWO!
WE'LL BRING THE NOISE

Try to pretend that I never even knew your name, cause everything you are disgusts me
Too bad I can't turn back time so I wouldn't be here
Oh what I'd give for you to disappear
Tell me girly, how's your edge?

You've got nothing better to do
I know why you can't see straight
I thought you were better than this
but you're just like everyone else

I'm looking down at this mess that you've made, and I can't believe that I stayed so 
for so long
Where did I go wrong?
I've got to get out of this, my hand is on the handle, and we're leaving everything behind
Goodbye for a lifetime

I'll make my stand right here with my friends

GET LOW

Now I know who my friends are
I'm never coming home

- - - - - - - - - - - - - - - - - - - - - - - - - - - - -- - - - - - - - - -
Okay heres my version because i don't see the point in down tuning to C if you play the
notes in D.  But thats just because my bands in D =]

Any problems e-mail me -- germansrule4eva@hotmail.com

enjoy x
comments
print report bad tab
I want to post or [tab]
guest
You may want to rate the tab now too:
select rating
Please do not post tabs as comments. Select "correction" instead!