Oops, an error
Loading. Please wait.

Plot To Bomb The Panhandle Tab

version 5
version 5
4,518 views 3 this week
1 commentread comment
1 2 3 4 5
worth learning
x 3
add to favorites
launch autoscroll
font size
0
reset
how to read this tab
guitar tuner
Autoscroll
slow
fast
+/-
esc
set tempo
stop
Help us to improve Ultimate-Guitar.com Take our survey!
×
Author
Difficulty
Tuning
intermediate
D G C F A D
Artist: A Day To Remember

Song: The Plot To Bomb The Panhandle

Tunning: Drop D (DADGBe) yes drop d!!!

Well this is a pretty easy song, there are some parts that i couldnt figure out because 
sounded like phantom notes but the rest i am 110% that this song is ok it sounds awesome.

Intro: This part is done by the second guitar.

e-----------------------------------------|
B-----------------------------------------|
G-----333333333333-----333333333333-3-----|
D--55-xxxxxxxxxxxx--55-xxxxxxxxxxxx-x-1---|  X2
A--55-111111111111--55-111111111111-1-1---|
D--55---------------55----------------1---|

Then the first and second guitar play the same

e-----------------------------------------|
B-----------------------------------------|
G-----333333333333-----333333333333-3-----|
D--55-xxxxxxxxxxxx--55-xxxxxxxxxxxx-x-1---|  X4
A--55-111111111111--55-111111111111-1-1---|
D--55---------------55----------------1---|

At he last time the guitar does something like this:

e---------------------|
B---------------------|
G---------------------|
D--55------3-------1--|
A--55-3-5--3--3-5--1--|
D--55------3-------1--|

First verse:

e----------------------------|
B----------------------------|
G----------------------------|
D--55-555--0-00-000--1111111-|
A--55-555--0-00-000--1111111-|
D--55-555--0-00-000--1111111-|

e----------------------------------|
B----------------------------------|
G----------3-33-333----------------|
D--55-555--3-33-333--1--xx-xx-xxx--|  X2 At the second time let it ring
A--55-555--1-11-111--1--xx-xx-xxx--|
D--55-555------------1--xx-xx-xxx--|
                        .. .. ...
e---------------------------------------|
B-------------------------------3-4-3---|
G-------------------------------------5-|
D-11-11-11-11-111--55-55-55-55----------|
A-11-11-11-11-111--55-55-55-55----------|
D-11-11-11-11-111--55-55-55-55----------|
  .. .. .. .. ...  .. .. .. ..
e-------------------------------------|
B------------------11-10-----3-4-3----|
G------------------------10--------5--|
D-11-11-11-11-111---------------------|  X2 At the second time at the end
A-11-11-11-11-111---------------------|     the guitar makes this
D-11-11-11-11-111---------------------|
  .. .. .. .. ...

e-------------------------------------------------|
B-------------------------------------------------|
G-------------------------------------------------|
D-11-11-11-11-111--33-33-00-00-000-1--------------|
A-11-11-11-11-111--33-33-00-00-000-1-let it ring--|
D-11-11-11-11-111--33-33-00-00-000-1--------------|
  .. .. .. .. ...  .. .. .. .. ...

Chorus: (this is not the exactly rythm but this are the exact notes deduce the rythm by 
the song)

e---------------------------------------------------------------|
B---------------------------------------------------------------|
G------------------------3333333--------------------------------|
D-55555555555--11111111--3333333--3333333333--4444444444--------| X2 At the second
A-55555555555--11111111--1111111--3333333333--4444444444--------|  part finish in
D-55555555555--11111111-----------3333333333--4444444444--   1--|
                                                             1-And let it-
                                                             1-ring-------
After that u repeat the whole song

After u finish the chorus on the second time, comes this:

e----------------------------------------------|
B----------------------------------------------|
G----------------------------------------------|
D-1--------------5--------------1--------------| X2
A-1-let it ring--5-let it ring--1-let it ring--|
D-1--------------5--------------1--------------|

e-----------------------------------|
B-----------------------------------|
G-----------------------------------|
D-111-111-111-111--555-555-333-333--| X2
A-111-111-111-111--555-555-333-333--|
D-111-111-111-111--555-555-333-333--|

After that it comes this

e---------------------------|
B---------------------------|
G---------------------------|
D-5--0--1---5--0--1-11--333-| X2
A-5--0--1---5--0--1-11--333-|
D-5--0--1---5--0--1-11--333-|

e-------------------------------|
B-------------------------------|
G-------------------------------|
D-5--0--1-1-11--5--0--1-11--333-| X2
A-5--0--1-1-11--5--0--1-11--333-|
D-5--0--1-1-11--5--0--1-11--333-|
          . ..

After this play the intro again and thats it!

Well hope u ejoy it Any comment to me jhon thompson!
Suggest correction
Give kudos to tab author, rate the tab!
1 2 3 4 5
comments
print report bad tab
1 comment total.
+1 reply
quazarnjp86 10 wrote on March 11 2010, 09:54 am

this song is in drop C like most of ADTR's songs but it doesnt drop down below the second fret so ur tab is still correct just not the way they actually play it.

guest
You may want to rate the tab now too:
select rating
Wanna post a correction for this tab? Suggest correction