Oops, an error
Loading. Please wait.

Plot To Bomb The Panhandle Tab

version 7
version 7
4,318 views 1 this week
1 commentread comment
1 2 3 4 5
2 more votes to show rating
add to favorites
launch autoscroll
font size
0
reset
how to read this tab
guitar tuner
Autoscroll
slow
fast
+/-
esc
set tempo
stop
Help us to improve Ultimate-Guitar.com Take our survey!
×
Author
Tuning
C G C F A D
Artist: A Day To Remember
Song: The Plot To Bomb The Panhandle
Album: For Those Who Have A Heart
Tuning: Dropped C (low to high) CGCFAD
Key:
~ = Ring Out
. = Palm Mute
/ = Slide Up
 = Slide Down
X = Dead Note
_____________x2___________
Intro:                                                    /
D|----------------------------|--------------------------|----------------------------|
A|----------------------------|--------------------------|----------------------------|
F|----------------------------|--------------------------|----------------------------|
C|----101010101010101010101010|----1010101010101010------|----101010101010101010101010|
G|7777------------------------|7777-----------------73~~~|7777------------------------|
C|7777------------------------|7777-----------------73~~~|7777------------------------|

Intro. 2:
D|----------------------------|--------------------------|
A|----------------------------|--------------------------|
F|----------------------------|--------------------------|
C|----101010101010101010101010|----1010101010101010------|
G|7777------------------------|7777-----------------73~~~|
C|7777------------------------|7777-----------------73~~~|

D|----------------------------|-----------------------|
A|----------------------------|-----------------------|
F|----------------------------|-----------------------|
C|----101010101010101010101010|----1010101010101010---|
G|7777-----------------------­|7777-----------------73|
C|7777------------------------|7777-----------------73|

D|----------------------------|--------------------------|
A|----------------------------|--------------------------|
F|----------------------------|--------------------------|
C|----101010101010101010101010|----1010101010101010------|
G|7777------------------------|7777-----------------73~~~|
C|7777------------------------|7777-----------------73~~~|

D|----------------------------|-------------------------|
A|----------------------------|-------------------------|
F|----------------------------|-------------------------|
C|----101010101010101010101010|----1010101010101010-----|
G|7777------------------------|7777-----------------73~~|
C|7777------------------------|7777-----------------73~~|

Pre-Verse:
D|--------------------|
A|--------------------|
F|--------------------|
C|--------------------|
G|0~~0023-------03-3~~|
C|--------2~~22----3~~|

Verse:
D|----------------------------------|-----------------------------|
A|----------------------------------|-----------------------------|
F|----------------------------------|-----------------------------|
C|----------------------------------|---------5~55~555----XX-XX-XX|
G|7~77~777-2~22~222-3~33~3333~33~333|7~77~777-3~33~333-3~~XX-XX-XX|
C|7~77~777-2~22~222-3~33~3333~33~333|7~77~777----------3~~XX-XX-XX|

D|----------------------------------|-------------------------|
A|----------------------------------|-------------------------|
F|----------------------------------|-------------------------|
C|----------------------------------|---------5~55~555--------|
G|7~77~777-2~22~222-3~33~3333~33~333|7~77~777-3~33~333-3~~~~~~|
C|7~77~777-2~22~222-3~33~3333~33~333|7~77~777----------3~~~~~~|


Pre-Chorus:
D|--------------------------------|--------------------------------|
A|--------------------------------|--------------------------------|
F|--------------------------------|--------------------------------|
C|--------------------------------|----------------------55-55-5555|
G|33-33-33-33-333377-77-77-77-7777|33-33-33-33-333377-77-33-33-3333|
C|33-33-33-33-333377-77-77-77-7777|33-33-33-33-333377-77-----------|
PM...............................................................

D|--------------------------------|-----------------------------------------|
A|--------------------------------|-------------------------------------6~~~|
F|--------------------------------|-------------------------------------5~~~|
C|--------------------------------|---------------------------------3~~~3~~~|
G|33-33-33-33-333377-77-77-77-7777|33-33-33-33-333355-55-22-22-2222-3~~~3~~~|
C|33-33-33-33-333377-77-77-77-7777|33-33-33-33-333355-55-22-22-2222-3~~~3~~~|
PM...............................................................

Chorus:
D|--------------------------------|---------------------------------|
A|--------------------------------|---------------------------------|
F|--------------------------------|---------------------------------|
C|--------------------------------|5~55~555~555~555-----------------| x2
G|7~77~777~777~7773~33~333~333~333|3~33~333~333~3335~55~555~6~66~666|
C|7~77~777~777~7773~33~333~333~333|----------------5~55~555~6~66~666|

"I'll rip that scandalous bitch in two"
D|-----------------|
A|-----------------|
F|----55555555-----|
C|-----------------|
G|3~3----------7-5~|
C|3~3----------7-5~|

Intro. 2
D|----------------------------|--------------------------|
A|----------------------------|--------------------------|
F|----------------------------|--------------------------|
C|----101010101010101010101010|----1010101010101010------|
G|7777------------------------|7777-----------------73~~~|
C|7777------------------------|7777-----------------73~~~|

D|----------------------------|-----------------------|
A|----------------------------|-----------------------|
F|----------------------------|-----------------------|
C|----101010101010101010101010|----1010101010101010---|
G|7777------------------------|7777-----------------73|
C|7777------------------------|7777-----------------73|

D|----------------------------|--------------------------|
A|----------------------------|--------------------------|
F|----------------------------|--------------------------|
C|----101010101010101010101010|----1010101010101010------|
G|7777------------------------|7777-----------------73~~~|
C|7777------------------------|7777-----------------73~~~|

D|----------------------------|-------------------------|
A|----------------------------|-------------------------|
F|----------------------------|-------------------------|
C|----101010101010101010101010|----1010101010101010-----|
G|7777------------------------|7777-----------------73~~|
C|7777------------------------|7777-----------------73~~|

Pre-Verse
D|--------------------|
A|--------------------|
F|--------------------|
C|--------------------|
G|0~~0023-------03-3~~|
C|--------2~~22----3~~|

Verse

Pre-Chorus

Chorus x2

Interlude:
D|--------|--------------------|--------------------------------|
A|--------|--------------------|--------------------------------|
F|--------|--------------------|--------------------------------|
C|3~~~~~~~|3~~~~7~~~~3~~~~7~~~~|--------------------------------|
G|3~~~~~~~|3~~~~7~~~~3~~~~7~~~~|333~333~333~333~777~777~555~555~|
C|3~~~~~~~|3~~~~7~~~~3~~~~7~~~~|333~333~333~333~777~777~555~555~|
                                 ..  ..  ..  ..  ..  ..  ..  ..

D|--------------------------------|
A|--------------------------------|
F|--------------------------------|
C|------------------------55555555|
G|333~333~333~333~777~777~33333333|
C|333~333~333~333~777~777~--------|
  ..  ..  ..   ..  ..  ..

D|--------|---------------|--------|
A|--------|---------------|--------|
F|--------|-------55555555|--------|
C|--------|-------xxxxxxxx|--------|
G|7~2~3~~~|7~2~3--33333333|7~2~3~~~|
C|7~2~3~~~|7~2~3----------|7~2~3~~~|

D|-----|-----------|-------------|-----------|-------------|
A|-----|-----------|-------------|-----------|-------------|
F|-----|-----------|-------------|-----------|-------------|
C|-----|-----------|-------------|-----------|-------------|
G|7~2~3|-------3~33|-------3~3/5~|-------3~33|-------3~355~|
C|7~2~3|7~2~3~~3~33|7~2~3~~3~3/5~|7~2~3~~3~33|7~2~3~~3~355~|

Outro.
D|----------------------------|--------------------------|
A|----------------------------|--------------------------|
F|----------------------------|--------------------------|
C|----101010101010101010101010|----1010101010101010------|
G|7777------------------------|7777-----------------73~~~|
C|7777------------------------|7777-----------------73~~~|

|----------------------------|-----------------------------|
|----------------------------|-----------------------------|
|----------------------------|-----------------------------|
|----101010101010101010101010|----1010101010101010---------|
|7777------------------------|7777-----------------73~~7---|
|7777------------------------|7777-----------------73~~7---|
Suggest correction
Give kudos to tab author, rate the tab!
1 2 3 4 5
comments
print report bad tab
1 comment total.
0 reply
farmerjon1988 661 Apr 18, 2010 02:19 PM

cool tab dude :)

guest
You may want to rate the tab now too:
select rating
Wanna post a correction for this tab? Suggest correction