Oops, an error
Loading. Please wait.

Reassemble tab

733 views 18 this week
1 commentread comment
1 2 3 4 5
1 last vote to show rating
add to favorites
×
Save as Personal and add changes to this tab that will be seen only by you. Learn more ›
×
You can save this tab as Personal to edit and correct it or add notes. All changes will be seen only by you. Learn more »
launch autoscroll
font size
0
reset
how to read this tab
guitar tuner
edit
Autoscroll
slow
fast
+/-
esc
set tempo
stop
About this tab version
This is primarily tabbed for 2 guitars though the recording has them layered fairly thickly and has multiple string instruments and effects throughout for a huge sound. Was this info helpful? Yes No
[INTRO]

C#|------------------------------------------------------|
G#|------------------------------------------------------|
E |----------------------------------------2-------------|
B |-0~----------8~---------5~---------3~---2-------------|
F#|-0~----------8~---------5~---------3~---0-------------|
B |-0~----------8~---------5~---------3~-----------------|

Guitar 1:
C#|----------------------|
G#|-6---6---6---6--------|
E |---7---7---7---7------|
B |----------------------|  Will update the rest of this shortly.
F#|----------------------|
B |----------------------|


[INTRO PART 2]


Guitar 1:
C#|------------------------------------------------------|
G#|------------------------------------------------------|
E |------------------------------------------------------|
B |------------------------------------------------------|
F#|-0-0-0--0-0-0--0-0-0--0-0-0--0-0-0--0-0-0--8-7-4-5----|
B |-0-0-0--0-0-0--0-0-0--0-0-0--0-0-0--0-0-0-------------|
pm  . . .  . . .  . . .  . . .  . . .  . . .

C#|-------------------------------------------------------|
G#|-------------------------------------------------------|
E |-------------------------------------------------------|
B |-------------------------------------------------------|
F#|-0-0-0--0-0-0--0-0-0--0-0-0--0-0-0--0-0-0--7h8p7p0-5-4-|
B |-0-0-0--0-0-0--0-0-0--0-0-0--0-0-0--0-0-0--------------|
pm  . . .  . . .  . . .  . . .  . . .  . . .

Guitar 2:
C#|----------------------------------------------------------|
G#|----------------------------------------------------------|
E |----------------------------------------------------------|
B |----------------------------------------------------------|
F#|-0-0-0--0-0-0--0-0-0--0-0-0--0-0-0--0-0-0--12-10-7-8------|
B |-0-0-0--0-0-0--0-0-0--0-0-0--0-0-0--0-0-0-----------------|
pm  . . .  . . .  . . .  . . .  . . .  . . .

C#|----------------------------------------------------------|
G#|----------------------------------------------------------|
E |----------------------------------------------------------|
B |----------------------------------------------------------|
F#|-0-0-0--0-0-0--0-0-0--0-0-0--0-0-0--0-0-0--10h12p10p0-8-7-|
B |-0-0-0--0-0-0--0-0-0--0-0-0--0-0-0--0-0-0-----------------|
pm  . . .  . . .  . . .  . . .  . . .  . . .


[VERSE 1]


PART 1

Guitar 1:
C#|----------------------------------------------------------------------------|
G#|----------------------------------------------------------------------------|
E |----------------------------------------------------------------------------|
B |-0-----1---0---0---1-0--------------------0-----1---0---0-------------------|
F#|-0-0-0-1-0-0-0-0-0-1-0-0--4-4-4-4-5-5-5-5-0-0-0-1-0-0-0-0-------------------|
B |-0-0-0-1-0-0-0-0-0-1-0-0------------------0-0-0-1-0-0-0-0--12-10-0-8-0-7-8--|
PM    . .   .   .   .     .                    . .   .   .             

C#|-------------------------------------------------------------------------------|
G#|-------------------------------------------------------------------------------|
E |-------------------------------------------------------------------------------|
B |-0-----1---0---0---1-0--------------------0-----1---0---0----------------------|
F#|-0-0-0-1-0-0-0-0-0-1-0-0--5-5-5-5-4-4-4-4-0-0-0-1-0-0-0-0----------------------|
B |-0-0-0-1-0-0-0-0-0-1-0-0------------------0-0-0-1-0-0-0-0--12-10-0-13-12-10-12-|
PM    . .   .   .   .     .                    . .   .   .           


Guitar 2:
C#|----------------------------------------------------------------------------|
G#|----------------------------------------------------------------------------|
E |----------------------------------------------------------------------------|
B |-0-----1---0---0---1-0--------------------0-----1---0---0-------------------|
F#|-0-0-0-1-0-0-0-0-0-1-0-0--7-7-7-7-8-8-8-8-0-0-0-1-0-0-0-0-------------------|
B |-0-0-0-1-0-0-0-0-0-1-0-0------------------0-0-0-1-0-0-0-0--12-10-0-8-0-7-8--|
PM    . .   .   .   .     .                    . .   .   .          

C#|-------------------------------------------------------------------------------|
G#|-------------------------------------------------------------------------------|
E |-------------------------------------------------------------------------------|
B |-0-----1---0---0---1-0--------------------0-----1---0---0----------------------|
F#|-0-0-0-1-0-0-0-0-0-1-0-0--8-8-8-8-7-7-7-7-0-0-0-1-0-0-0-0----------------------|
B |-0-0-0-1-0-0-0-0-0-1-0-0------------------0-0-0-1-0-0-0-0--12-10-0-13-12-10-12-|
PM    . .   .   .   .     .                    . .   .   .           

 
PART 2:

Guitar 1:
C#|----13-------13-------13--------13--------13-----------13-------13-------13------13--------13----------|
G#|-------17-------17-------17--------17--------17----17-----17-------17-------17------17--------17----17-|
E |-14-------14-------14-------14--------14--------14-----------14-------14-------14------14--------14----|
B |-------------------------------------------------------------------------------------------------------|
F#|-------------------------------------------------------------------------------------------------------|
B |-------------------------------------------------------------------------------------------------------|

C#|-13-------13--------13-------13--------13----------------------------------------------------------------|
G#|----17-------17--------17-------17--------17-----17------------------------------------------------------|
E |-------14-------14--------14--------14-------14-----15-15-15-15-15-15-15-15-14-14-14-14-12-12-12-12-10~--|
B |---------------------------------------------------------------------------------------------------------|
F#|---------------------------------------------------------------------------------------------------------|
B |---------------------------------------------------------------------------------------------------------|

Guitar 2:
C#|-----------------------------------------------------------------------------------------------|
G#|-----------------------------------------------------------------------------------------------|
E |-----------------------------------------------------------------------------------------------|
B |-----------------------------------------------------------------------------------------------|
F#|-0-0-0--0-0-0--0-0-0----0---0-0-0--0-0-0--0-0-0--0-0-0--0-0-0--0-0-0----0---0-0-0--0--0--0--0--|
B |-0-0-0--0-0-0--0-0-0----0---0-0-0--0-0-0--0-0-0--0-0-0--0-0-0--0-0-0----0---0-0-0--0--0--0--0--|
pm  . . .  . . .  . . .    .   . . .  . . .  . . .  . . .  . . .  . . .    .   . . .  .  .  .  .

C#|-------------------------------------------------------------------------------------------|
G#|-------------------------------------------------------------------------------------------|
E |-------------------------------------------------------------------------------------------|
B |--------------------------------------------------------------------------------------3~---|
F#|-8-8-8--8-8-8--8-8-8----8---8-8-8--8-8-8--8-8-8--5-5-5-5-5-5-5-5-5-5-5-5-5-5-5-5-5-5--3~---|
B |-8-8-8--8-8-8--8-8-8----8---8-8-8--8-8-8--8-8-8--5-5-5-5-5-5-5-5-5-5-5-5-5-5-5-5-5-5--3~---|
pm  . . .  . . .  . . .    .   . . .  . . .  . . .  . . . . . . . . . . . . . . . . . .    


[PRE CHORUS]


Guitar 1:
C#|---------------------0------------------0--------------------0-------------------|
G#|------------8----------------8----------------------8----------------8-----------|
E |-----10-------10-------10-------10-----------10--------10------10-------9-9-9-9--|
B |--10----10-------10-------10--------10----10----10--------10------10-------------|
F#|---------------------------------------------------------------------------------|
B |---------------------------------------------------------------------------------|

Guitar 2:
C#|---------------------------------------|
G#|---------------------------------------|
E |---------------------------------------|
B |--(3)~---------------------------------|
F#|--(3)~------------------10--8-7--------|
B |--(3)~--------------------------8------|


[CHORUS]


Guitar 1 and 2:
C#|-------------------------------------------------------------------|
G#|-------------------------------------------------------------------|
E |----------------------------------3-3-3-3-3-3-3-3-3-3-3-3-3-3-3-3--|
B |-0-0-0-0-0-0-0-0-0-0-0-0-0-0-0-0--3-3-3-3-3-3-3-3-3-3-3-3-3-3-3-3--|
F#|-0-0-0-0-0-0-0-0-0-0-0-0-0-0-0-0--1-1-1-1-1-1-1-1-1-1-1-1-1-1-1-1--|
B |-0-0-0-0-0-0-0-0-0-0-0-0-0-0-0-0-----------------------------------|

C#|-------------------------------------------------------------------|
G#|-------------------------------------------------------------------|
E |----------------------------------5-5-5-5-5-5-5-5-5-5-5-5-5-5-5-5--|
B |-3-3-3-3-3-3-3-3-3-3-3-3-3-3-3-3--5-5-5-5-5-5-5-5-5-5-5-5-5-5-5-5--|
F#|-3-3-3-3-3-3-3-3-3-3-3-3-3-3-3-3--3-3-3-3-3-3-3-3-3-3-3-3-3-3-3-3--|
B |-3-3-3-3-3-3-3-3-3-3-3-3-3-3-3-3-----------------------------------|

C#|-------------------------------------------------------------------|
G#|-------------------------------------------------------------------|
E |----------------------------------3-3-3-3-3-3-3-3-3-3-3-3-3-3-3-3--|
B |-0-0-0-0-0-0-0-0-0-0-0-0-0-0-0-0--3-3-3-3-3-3-3-3-3-3-3-3-3-3-3-3--|
F#|-0-0-0-0-0-0-0-0-0-0-0-0-0-0-0-0--1-1-1-1-1-1-1-1-1-1-1-1-1-1-1-1--|
B |-0-0-0-0-0-0-0-0-0-0-0-0-0-0-0-0-----------------------------------|

C#|------------------------------------------------------------------|
G#|------------------------------------------------------------------|
E |------------------------------------------------------------------|
B |-5-5-5-5-5-5-5-5-5-5-5-5-5-5-5-5--3-3-3-3-3-3-3-3-3-3-3-3---------|
F#|-5-5-5-5-5-5-5-5-5-5-5-5-5-5-5-5--3-3-3-3-3-3-3-3-3-3-3-3---------|
B |-5-5-5-5-5-5-5-5-5-5-5-5-5-5-5-5--3-3-3-3-3-3-3-3-3-3-3-3---------|

Guitar 3:
C#|-------17-------18-18-17-17----17----17-----15----15------------------|
G#|--15-------15---------------------18----18-----17----17---17h18-------|
E |----------------------------------------------------------------------|
B |----------------------------------------------------------------------|
F#|----------------------------------------------------------------------|
B |----------------------------------------------------------------------|

C#|-------17-------18-18-17-17----17----17----------------------------------|
G#|--15-------15---------------------18----18----17-18-17-18-17-18-17-18-17-|
E |-------------------------------------------------------------------------|
B |-------------------------------------------------------------------------|
F#|-------------------------------------------------------------------------|
B |-------------------------------------------------------------------------|


[TRANSITION]


C#|------------------|
G#|------------------|
E |------------------|
B |------------------|
F#|-0-0-0--0-0-0-----|
B |-0-0-0--0-0-0-----|
pm  . . .  . . .  


[VERSE 2]


PART 1

Guitar 1:
C#|------------------------------------------------------|
G#|------------------------------------------------------|
E |------------------------------------------------------|
B |------------------------------------------------------|
F#|-0-0-0--0-0-0--0-0-0--0-0-0--0-0-0--0-0-0--8-7-4-5----|
B |-0-0-0--0-0-0--0-0-0--0-0-0--0-0-0--0-0-0-------------|
pm  . . .  . . .  . . .  . . .  . . .  . . .

C#|-------------------------------------------------------|
G#|-------------------------------------------------------|
E |-------------------------------------------------------|
B |-------------------------------------------------------|
F#|-0-0-0--0-0-0--0-0-0--0-0-0--0-0-0--0-0-0--4h5p4p0-7-8-|
B |-0-0-0--0-0-0--0-0-0--0-0-0--0-0-0--0-0-0--------------|
pm  . . .  . . .  . . .  . . .  . . .  . . .

C#|------------------------------------------------------|
G#|------------------------------------------------------|
E |------------------------------------------------------|
B |------------------------------------------------------|
F#|-0-0-0--0-0-0--0-0-0--0-0-0--0-0-0--0-0-0--8-7-4-5----|
B |-0-0-0--0-0-0--0-0-0--0-0-0--0-0-0--0-0-0-------------|
pm  . . .  . . .  . . .  . . .  . . .  . . .

C#|-------------------------------------------------------|
G#|-------------------------------------------------------|
E |-------------------------------------------------------|
B |-------------------------------------------------------|
F#|-0-0-0--0-0-0--0-0-0--0-0-0--0-0-0--0-0-0--4h5p4p0-7-8-|
B |-0-0-0--0-0-0--0-0-0--0-0-0--0-0-0--0-0-0--------------|
pm  . . .  . . .  . . .  . . .  . . .  . . .

Guitar 2:
C#|----------------------------------------------------------|
G#|----------------------------------------------------------|
E |----------------------------------------------------------|
B |----------------------------------------------------------|
F#|-0-0-0--0-0-0--0-0-0--0-0-0--0-0-0--0-0-0--12-10-7-8------|
B |-0-0-0--0-0-0--0-0-0--0-0-0--0-0-0--0-0-0-----------------|
pm  . . .  . . .  . . .  . . .  . . .  . . .

C#|----------------------------------------------------------|
G#|----------------------------------------------------------|
E |----------------------------------------------------------|
B |----------------------------------------------------------|
F#|-0-0-0--0-0-0--0-0-0--0-0-0--0-0-0--0-0-0--7h8p7p0-10-12--|
B |-0-0-0--0-0-0--0-0-0--0-0-0--0-0-0--0-0-0-----------------|
pm  . . .  . . .  . . .  . . .  . . .  . . .

C#|----------------------------------------------------------|
G#|----------------------------------------------------------|
E |----------------------------------------------------------|
B |----------------------------------------------------------|
F#|-0-0-0--0-0-0--0-0-0--0-0-0--0-0-0--0-0-0--12-10-7-8------|
B |-0-0-0--0-0-0--0-0-0--0-0-0--0-0-0--0-0-0-----------------|
pm  . . .  . . .  . . .  . . .  . . .  . . .

C#|----------------------------------------------------------|
G#|----------------------------------------------------------|
E |----------------------------------------------------------|
B |----------------------------------------------------------|
F#|-0-0-0--0-0-0--0-0-0--0-0-0--0-0-0--0-0-0--7h8p7p0-10-12--|
B |-0-0-0--0-0-0--0-0-0--0-0-0--0-0-0--0-0-0-----------------|
pm  . . .  . . .  . . .  . . .  . . .  . . .


PART 2

Guitar 1:
C#|-t18p12-t18p12-t18p12-t18p12-t18p12-t18p12-t18p12-t18p12-|
G#|---------------------------------------------------------|
E |---------------------------------------------------------|
B |---------------------------------------------------------|
F#|---------------------------------------------------------|
B |---------------------------------------------------------|

C#|-t17p12-t17p12-t17p12-t17p12-t17p12-t17p12-t17p12-t17p12-|
G#|---------------------------------------------------------|
E |---------------------------------------------------------|
B |---------------------------------------------------------|
F#|---------------------------------------------------------|
B |---------------------------------------------------------|

C#|-t15p12-t15p12-t15p12-t15p12-t15p12-t15p12-t15p12-t15p12-|
G#|---------------------------------------------------------|
E |---------------------------------------------------------|
B |---------------------------------------------------------|
F#|---------------------------------------------------------|
B |---------------------------------------------------------|

C#|-t15p12-t15p12-t15p12-t15p12-t15p12-t15p12-t15p12-t15p12-|
G#|---------------------------------------------------------|
E |---------------------------------------------------------|
B |---------------------------------------------------------|
F#|---------------------------------------------------------|
B |---------------------------------------------------------|

C#|-t17p12-t17p12-t17p12-t17p12-t17p12-t17p12-t17p12-t17p12-|
G#|---------------------------------------------------------|
E |---------------------------------------------------------|
B |---------------------------------------------------------|
F#|---------------------------------------------------------|
B |---------------------------------------------------------|

C#|-t15p12-t15p12-t15p12-t15p12-t15p12-t15p12-t15p12-t15p12-|
G#|---------------------------------------------------------|
E |---------------------------------------------------------|
B |---------------------------------------------------------|
F#|---------------------------------------------------------|
B |---------------------------------------------------------|

C#|-t13p10-t13p10-t13p10-t13p10-t13p10-t13p10-t13p10-t13p10-|
G#|---------------------------------------------------------|
E |---------------------------------------------------------|
B |---------------------------------------------------------|
F#|---------------------------------------------------------|
B |---------------------------------------------------------|

Guitar 2:
C#|-----------------------------------------------------------------|
G#|-----------------------------------------------------------------|
E |-----------------------------------------------------------------|
B |-----------------------------------------------------------------| 
F#|-----------------------------------------------------------------|
B |-0-0-0-0-0-0-0-0-0-0-0-0-0-0-0-0-0-0-0-0-0-0-0-0-0-0-0-0-0-0-0-0-|

C#|-----------------------------------------------------------------|
G#|-----------------------------------------------------------------|
E |-----------------------------------------------------------------|
B |-----------------------------------------------------------------| 
F#|-----------------------------------------------------------------|
B |-8-8-8-8-8-8-8-8-8-8-8-8-8-8-8-8-8-8-8-8-8-8-8-8-8-8-8-8-8-8-8-8-|

C#|-----------------------------------------------------------------|
G#|-----------------------------------------------------------------|
E |-----------------------------------------------------------------|
B |-----------------------------------------------------------------| 
F#|-----------------------------------------------------------------|
B |-5-5-5-5-5-5-5-5-5-5-5-5-5-5-5-5-5-5-5-5-5-5-5-5-5-5-5-5-5-5-5-5-|

C#|-----------------------------------------------------|
G#|-----------------------------------------------------|
E |-----------------------------------------------------|
B |-----------------------------------------------------| 
F#|-----------------------------------------------------|
B |-3-3-3-3-3-3-3-3-3-3-3-3-3-3-3-3-3-3-3-3-3-3-3-3-----|


[BREAKDOWN]


Guitar 1:
C#|-------------------------------------------------------------------------------------------------|
G#|-------------------------------------------------------------------------------------------------|
E |-------------------------------------------------------------------------------------------------|
B |-------------------------------------------------------------------------------------------------|
F#|-0-0-0--0-0-0----0-0-0--0-0-0-----0-0-0--0-0-0--0-0-0--0-0-0----0-0-0--0-0-0----0--0--0--0--0--0-|
B |-0-0-0--0-0-0----0-0-0--0-0-0-----0-0-0--0-0-0--0-0-0--0-0-0----0-0-0--0-0-0----0--0--0--0--0--0-|
pm  . . .  . . .    . . .  . . .     . . .  . . .  . . .  . . .    . . .  . . .    .  .  .  .  .  .

C#|-------------------------------------------------------------------------------------------------|
G#|-------------------------------------------------------------------------------------------------|
E |-------------------------------------------------------------------------------------------------|
B |-------------------------------------------------------------------------------------------------|
F#|-0-0-0--0-0-0----0-0-0--0-0-0-----0-0-0--0-0-0--0-0-0--0-0-0----0-0-0--0-0-0----0-0-0--0---------|
B |-0-0-0--0-0-0----0-0-0--0-0-0-----0-0-0--0-0-0--0-0-0--0-0-0----0-0-0--0-0-0----0-0-0--0---------|
pm  . . .  . . .    . . .  . . .     . . .  . . .  . . .  . . .    . . .  . . .    . . .  .

C#|----------------------------------------------------------------------------------------------------|
G#|-----11-------11-------11------11-------11----------11-------11-------11-------11-------11----------|
E |--------14-------14-------14------14-------14----14----14-------14-------14-------14-------14----14-|
B |-/12-------12-------12-------12------12-------12----------12-------12-------12-------12-------12----|
F#|----------------------------------------------------------------------------------------------------|
B |----------------------------------------------------------------------------------------------------|

C#|----13-------13-------13-------13-------13----------13-------13-------13------13-------13----------|
G#|-------17-------17-------17-------17-------17----17----17-------17-------17------17-------17----17-|
E |-14-------14-------14-------14-------14-------14----------14-------14-------14------14-------14----|
B |---------------------------------------------------------------------------------------------------|
F#|---------------------------------------------------------------------------------------------------|
B |---------------------------------------------------------------------------------------------------|

Guitar 2:
C#|-------------------------------------------------------------------------------------------------|
G#|-------------------------------------------------------------------------------------------------|
E |-------------------------------------------------------------------------------------------------|
B |-------------------------------------------------------------------------------------------------|
F#|-0-0-0--0-0-0----0-0-0--0-0-0-----0-0-0--0-0-0--0-0-0--0-0-0----0-0-0--0-0-0----0--0--0--0--0--0-|
B |-0-0-0--0-0-0----0-0-0--0-0-0-----0-0-0--0-0-0--0-0-0--0-0-0----0-0-0--0-0-0----0--0--0--0--0--0-|
pm  . . .  . . .    . . .  . . .     . . .  . . .  . . .  . . .    . . .  . . .    .  .  .  .  .  .

C#|-------------------------------------------------------------------------------------------------|
G#|-------------------------------------------------------------------------------------------------|
E |-------------------------------------------------------------------------------------------------|
B |-------------------------------------------------------------------------------------------------|
F#|-0-0-0--0-0-0----0-0-0--0-0-0-----0-0-0--0-0-0--0-0-0--0-0-0----0-0-0--0-0-0----0-0-0--0---------|
B |-0-0-0--0-0-0----0-0-0--0-0-0-----0-0-0--0-0-0--0-0-0--0-0-0----0-0-0--0-0-0----0-0-0--0---------|
pm  . . .  . . .    . . .  . . .     . . .  . . .  . . .  . . .    . . .  . . .    . . .  .

C#|---------------------------------------------------------------------------------|
G#|---------------------------------------------------------------------------------|
E |---------------------------------------------------------------------------------|
B |---------------------------------------------------------------------------------|
F#|-0-0-0--0-0-0----0-0-0--0-0-0-----0-0-0--0-0-0--0-0-0--0-0-0----0-0-0--0-0-0-----|
B |-0-0-0--0-0-0----0-0-0--0-0-0-----0-0-0--0-0-0--0-0-0--0-0-0----0-0-0--0-0-0-----|
pm  . . .  . . .    . . .  . . .     . . .  . . .  . . .  . . .    . . .  . . .   

C#|----------------------------------------------------------------------------------------|
G#|----------------------------------------------------------------------------------------|
E |----------------------------------------------------------------------------------------|
B |----------------------------------------------------------------------------------------|
F#|-0-0-0--0-0-0----0-0-0--0-0-0-----0--0--0--0--0--0--0-0-0--0-0-0----0-0-0--0-0-0--------|
B |-0-0-0--0-0-0----0-0-0--0-0-0-----0--0--0--0--0--0--0-0-0--0-0-0----0-0-0--0-0-0---12/--|
pm  . . .  . . .    . . .  . . .     .  .  .  .  .  .  . . .  . . .    . . .  . . .   


[CHORUS 2]


Guitar 1 and 2:
C#|-------------------------------------------------------------------|
G#|-------------------------------------------------------------------|
E |----------------------------------3-3-3-3-3-3-3-3-3-3-3-3-3-3-3-3--|
B |-0~-------------------------------3-3-3-3-3-3-3-3-3-3-3-3-3-3-3-3--|
F#|-0~-------------------------------1-1-1-1-1-1-1-1-1-1-1-1-1-1-1-1--|
B |-0~----------------------------------------------------------------|

C#|-------------------------------------------------------------------|
G#|-------------------------------------------------------------------|
E |----------------------------------5-5-5-5-5-5-5-5-5-5-5-5-5-5-5-5--|
B |-3-3-3-3-3-3-3-3-3-3-3-3-3-3-3-3--5-5-5-5-5-5-5-5-5-5-5-5-5-5-5-5--|
F#|-3-3-3-3-3-3-3-3-3-3-3-3-3-3-3-3--3-3-3-3-3-3-3-3-3-3-3-3-3-3-3-3--|
B |-3-3-3-3-3-3-3-3-3-3-3-3-3-3-3-3-----------------------------------|

C#|-------------------------------------------------------------------|
G#|-------------------------------------------------------------------|
E |----------------------------------3-3-3-3-3-3-3-3-3-3-3-3-3-3-3-3--|
B |-0-0-0-0-0-0-0-0-0-0-0-0-0-0-0-0--3-3-3-3-3-3-3-3-3-3-3-3-3-3-3-3--|
F#|-0-0-0-0-0-0-0-0-0-0-0-0-0-0-0-0--1-1-1-1-1-1-1-1-1-1-1-1-1-1-1-1--|
B |-0-0-0-0-0-0-0-0-0-0-0-0-0-0-0-0-----------------------------------|

C#|-------------------------------------------------------------------|
G#|-------------------------------------------------------------------|
E |-----------------------------------------------------------2-------|
B |-5-5-5-5-5-5-5-5-5-5-5-5-5-5-5-5--3-3-3-3-3-3-3-3-3-3-3-3--2-------|
F#|-5-5-5-5-5-5-5-5-5-5-5-5-5-5-5-5--3-3-3-3-3-3-3-3-3-3-3-3--0-------|
B |-5-5-5-5-5-5-5-5-5-5-5-5-5-5-5-5--3-3-3-3-3-3-3-3-3-3-3-3----------|

Guitar 3:
C#|----------------18-18-17-17----17----17-----15----15------------------|
G#|--15~-----------------------------18----18-----17----17---17h18-------|
E |----------------------------------------------------------------------|
B |----------------------------------------------------------------------|
F#|----------------------------------------------------------------------|
B |----------------------------------------------------------------------|

C#|-------17-------18-18-17-17----17----17----------------------------------|
G#|--15-------15---------------------18----18----17-18-17-18-17-18-17-18-17-|
E |-------------------------------------------------------------------------|
B |-------------------------------------------------------------------------|
F#|-------------------------------------------------------------------------|
B |-------------------------------------------------------------------------|


[OUTRO]


PART 1

Guitar 1 & 2:
C#|------------------------------------------------------------------------------|
G#|-3-3-3-3-3-3-3--3-3-5-5-5-5-5-5-5--5-5-3-3-3-3-3-3-3--3-3-5-5-5-5-5-5-5--5-5--|
E |-3-3-3-3-3-3-3--3-3-5-5-5-5-5-5-5--5-5-2-2-2-2-2-2-2--2-2-5-5-5-5-5-5-5--5-5--|
B |-3-3-3-3-3-3-3--3-3-5-5-5-5-5-5-5--5-5-0-0-0-0-0-0-0--0-0-5-5-5-5-5-5-5--5-5--|
F#|-1-1-1-1-1-1-1--1-1-3-3-3-3-3-3-5--3-3-0-0-0-0-0-0-0--0-0-3-3-3-3-3-3-5--3-3--|
B |---------------------------------------0-0-0-0-0-0-0--0-0---------------------|

C#|------------------------------------------------------------------------------|
G#|-3-3-3-3-3-3-3--3-3-5-5-5-5-5-5-5--5-5-3-3-3-3-3-3-3--3-3-5-5-5-5-5-5-5--5-5--|
E |-3-3-3-3-3-3-3--3-3-5-5-5-5-5-5-5--5-5-2-2-2-2-2-2-2--2-2-5-5-5-5-5-5-5--5-5--|
B |-3-3-3-3-3-3-3--3-3-5-5-5-5-5-5-5--5-5-0-0-0-0-0-0-0--0-0-5-5-5-5-5-5-5--5-5--|
F#|-1-1-1-1-1-1-1--1-1-3-3-3-3-3-3-5--3-3-0-0-0-0-0-0-0--0-0-3-3-3-3-3-3-5--3-3--|
B |---------------------------------------0-0-0-0-0-0-0--0-0---------------------|

C#|------------------------------------------------------------------------------|
G#|-3-3-3-3-3-3-3--3-3-5-5-5-5-5-5-5--5-5-3-3-3-3-3-3-3--3-3-5-5-5-5-5-5-5--5-5--|
E |-3-3-3-3-3-3-3--3-3-5-5-5-5-5-5-5--5-5-2-2-2-2-2-2-2--2-2-5-5-5-5-5-5-5--5-5--|
B |-3-3-3-3-3-3-3--3-3-5-5-5-5-5-5-5--5-5-0-0-0-0-0-0-0--0-0-5-5-5-5-5-5-5--5-5--|
F#|-1-1-1-1-1-1-1--1-1-3-3-3-3-3-3-5--3-3-0-0-0-0-0-0-0--0-0-3-3-3-3-3-3-5--3-3--|
B |---------------------------------------0-0-0-0-0-0-0--0-0---------------------|


C#|----------------------------------------------------------------------|
G#|-3~--------------5~-----------5-5-3~------------------5~----------5-5-|
E |-3~--------------5~-----------5-5-2~------------------5~----------5-5-|
B |-3~--------------5~-----------5-5-0~------------------5~----------5-5-|
F#|-1~--------------3~-----------3-3-0~------------------3~----------3-3-|
B |----------------------------------0~----------------------------------|

C#|--------------------------------------------------------------------------|
G#|-3~--------------5~-----------5-5-3~------------------5~----------5-5-3~--|
E |-3~--------------5~-----------5-5-2~------------------5~----------5-5-2~--|
B |-3~--------------5~-----------5-5-0~------------------5~----------5-5-0~--|
F#|-1~--------------3~-----------3-3-0~------------------3~----------3-3-0~--|
B |----------------------------------0~----------------------------------0~--|

Guitar 2:

C#|-----------------------------------------------------------------|
G#|-----------------------------------------------------------------|
E |-----------------------------------------------------------------|
B |--12~-----/22---------19---17---19\12~----/22--19---(19)b20b19---| 
F#|-----------------------------------------------------------------|
B |-----------------------------------------------------------------|

C#|--------------------------------------------------------------------|
G#|--------------------------------------------------------------------|
E |--------------------------------------------------------------------|
B |--12~-----/22---------19---17---19\12~----/22--19---(19)b20b19--12~-| 
F#|--------------------------------------------------------------------|
B |--------------------------------------------------------------------|

************************************

| x    Dead note
| (n)  Ghost note
| h    Hammer-on
| /    Slide up
| p    Pull off
| t    Pick tap
| \    Slide down
| b    Bend
| ~    Let Ring
| pm . Palm mute

************************************

            
            
Suggest correction
Creating personal tab
Creating personal tab
You can edit any tab online and save it as your Personal.

You can edit, replace or remove any tab part or add personal notes – all changes will be seen only by you.

Personal tabs can be accessed anytime from any device, even offline.
Learn more »
Give kudos to tab author, rate the tab!
1 2 3 4 5
comments
print report bad tab
1 comment total.
0 reply
antonio.carlos6 10 Sep 13, 2017 01:32 PM

Excellent!!

guest
You may want to rate the tab now too:
select rating
Wanna post a correction for this tab? Suggest correction